Song name
# A B C D E F G H I J K L M N O P Q R S T U V W X Y Z

Smiling Politely - Island Jig tab

Help us improve GuitareTab! Take a short survey!
Hey Adam...I tabbed this 'specially for you. I miss you a lot, and I always think of you 
I play this song. Love you kiddo.


1st Guitar:
E--x----x----x----x----x----|
B--x----x----x----x----x----|
G--7----6----4----2----7----|
D--7----7----4----5----5----|
A--9----9----2----3----7----|
E--x----x----x----x----x----|

*there are rythym clicks in there between each set of chords..but ya know how that goes. ;)

...after that you just pick out the notes individually in the same order.

2nd Guitar:
E--12---10---5----|
B--10---8----3----|
G--11---9----4----|
D--9----7----2----|
A--x----x----x----|
E--x----x----x----|


okay Adamo. There it is; your very own island jig. =D
Related for Island Jig tab