Song name
# A B C D E F G H I J K L M N O P Q R S T U V W X Y Z

Smith And Burrows - Wonderful Life tab

Smith & Burrows - Wonderful Life Acoustic Tab
Tuning: Standard
if you have any question: svenwath1@gmail.com
This is what Tom Smith plays on this Youtube video:https://www.youtube.com/watch?v=krnt3C6GODU

I hope you'll enjoy it :)

intro:
(2x)
e---------------------------------------------------------------------|
b---------------------------------------------------------------------|
g------6-----6---6-----6-----6---6-----7-----7---7----7-----7---7-----|
d----0-----0---------0-----0---------0-----0---------0----0-----------|
a----------------------------------5-----5-----5---5----5-----5-------|
e--7-----7-----7---7-----7-----7--------------------------------------|

First Part:
------------------------------------------------------------------------------

Here I go out to sea again
The sunshine fills my hair
And dreams hang in the air
(2x)

e------------------------------------------------------------------|
b------------------------------------------------------------------|
g------7-----7---7-----7-----7---7-----7-----7---7-----7-----7---7-|
d----0-----0---------0-----0---------0-----0---------0-----0-------|
a----------------------------------5-----5-----5---5-----5-----5---|
e--7-----7-----7---7-----7-----7-----------------------------------|

Gulls in the sky and in my blue eyes
You know it feels unfair
There's magic everywhere
(2x)

e-----------------------------------------------------------------|
b-----------------------------------------------------------------|
g------6-----6---6-----6-----6---6-----7-----7---7----7-----7---7-|
d----0-----0---------0-----0---------0-----0---------0----0-------|
a----------------------------------5-----5-----5---5----5-----5---|
e--7-----7-----7---7-----7-----7----------------------------------|

Second Part:
------------------------------------------------------------------------------

Look at me standing
Here on my own again
Up straight in the sunshine
(2x)

e------------------------------------------------------------------------------|
b------------------------------------------------------------------------------|
g------7-----7---7-----9-----9---9------11------11----11------12------12----12-|
d----0-----0---------0-----0----------0-------0-------------0-------0----------|
a------------------------------------------------------------------------------|
e--7-----7-----7---9-----9-----9---10------10------10----11------11------11----|

Third Part:
------------------------------------------------------------------------------

No need to run and hide
It's a wonderful, wonderful life
No need to laugh and cry
It's a wonderful, wonderful life
(2x)

e--------------------------------------------------------------------------|
b--------------------------------------------------------------------------|
g------7-----7-----7-----7-----7---7-----7---------6---------6-----6-----6-|
d----0-----0-----------0-----0---------0---------5---------0-----0---------|
a--------------------5-----5-----5-------------7-----(7)-------------------|
e--7-----7-----7---------------------7-----(7)-----------5-----5-----5-----|

next part is the intro
Tap to rate this tab
# A B C D E F G H I J K L M N O P Q R S T U V W X Y Z