Song name
# A B C D E F G H I J K L M N O P Q R S T U V W X Y Z

Smith Darden - Hunger tab

#----------------------------------PLEASE NOTE---------------------------------#
#This file is the author's own work and represents their interpretation of the #
#song. You may only use this file for private study, scholarship, or research. #
#------------------------------------------------------------------------------#

HUNGER
As recorded by Eternal Decision
(From the 1996 Album ETERNAL DECISION)


Transcribed by Craig Cameron

 Music by Eternal Decision

 

Gtr I (E A D G B E) - 'Rhythym'
Gtr II (E A D G B E) - 'Lead'
Gtr III (E A D G B E) - 'Clean Elec. Guitar with Flanger'


 Intro
  Moderate Rock Q=141
  C5                  Ab5             G5          G5   Bb5G5
 4/4
  Gtr I
   H     Q   S  +E.   H    Q  E +E    H    H      H    Q  Q
|-------------------|---------------|-----------|------------|
|-------------------|---------------|-----------|------------|
|-------------------|---------------|-----------|------------|
|-10----10--10-(10)S|=6----6--6-(6)S|=5----5----|-5----8--5--|
|-10----10--10-(10)S|=6----6--6-(6)S|=5----5----|-5----8--5--|
|--8-----8---8--(8)S|=4----4--4-(4)S|=3----3----|-3----6--3--|


  C5              Eb5             D5          Gsus2  Eb5D5
  H    Q  S +E.   H    Q  E +E    H    H      E E Q  Q  Q
|---------------|---------------|-----------|---------------|
|---------------|---------------|-----------|---------------|
|-5----5--5-(5)S|=8----8--8-(8)-|-7----7----|-2-2----8--7---|
|-5----5--5-(5)S|=8----8--8-(8)S|=7----7----|-0-0----8--7---|
|-3----3--3-(3)S|=6----6--6-(6)S|=5----5----|-5-5----6--5---|
|---------------|---------------|-----------|-3-3-----------|


  C5                  Ab5
   H     Q   S  +E.   H    Q  E +E
|-------------------|---------------|
|-------------------|---------------|
|-------------------|---------------|
|-10----10--10-(10)S|=6----6--6-(6)S|
|-10----10--10-(10)S|=6----6--6-(6)S|
|--8-----8---8--(8)S|=4----4--4-(4)S|
|
| Gtr II
|  W                  W
|-------------------|---------------|
|-------------------|---------------|
|-------------------|---------------|
|-------------------|---------------|
|-------------------|---------------|
|-------------------|---------------|


  G5                       G5          Bb5   G5
  H     H                    H           Q   Q
|------------------------|-----------------------|
|------------------------|-----------------------|
|------------------------|-----------------------|
|-5-----5----------------|---5-----------8---5---|
|-5-----5----------------|---5-----------8---5---|
|-3-----3----------------|---3-----------6---3---|
|
|                                        >
|                            ~~~~
| H     Q   +E       +E     +Q    +Q    +H
|------20--(20)b21==(20)r|=(20)--(20)--(20)------|
|------------------------|-----------------------|
|------------------------|-----------------------|
|------------------------|-----------------------|
|------------------------|-----------------------|
|------------------------|-----------------------|


  C5              Eb5             D5          Gsus2  Eb5D5
  H    Q  S +E.   H    Q  E +E    H    H      E E Q  Q  Q
|---------------|---------------|-----------|---------------|
|---------------|---------------|-----------|---------------|
|-5----5--5-(5)S|=8----8--8-(8)S|=7----7----|-2-2----8--7---|
|-5----5--5-(5)S|=8----8--8-(8)S|=7----7----|-0-0----8--7---|
|-3----3--3-(3)S|=6----6--6-(6)S|=5----5----|-5-5----6--5---|
|---------------|---------------|-----------|-3-3-----------|


  $$
  C5
                     >
   W                +W                 +W
|--------------||-------------------|----------------|
|--------------||o------------------|----------------|
|--------------||-------------------|----------------|
|-10-----------||--(10)-------------|-(10)-----------|
|-10-----------||o-(10)-------------|-(10)-----------|
|--8-----------||---(8)-------------|--(8)-----------|
|
| Gtr III
|         ~
|  Q  E E H          E Q.   E E E E     Q   E E H
|--------------||-------------------|----------------|
|--------------||o------------------|----------------|
|--------------||-----------7-------|----------------|
|-----5s6-6----||----8p5------6-5s6-|--(5)--5s6-6----|
|--------------||o------------------|----------------|
|--------------||-------------------|----------------|


   +W                +W               +W
|-----------------|----------------|------------------|
|-----------------|----------------|------------------|
|-----------------|----------------|------------------|
|-(10)------------|-(10)-----------|-(10)-------------|
|-(10)------------|-(10)-----------|-(10)-------------|
|--(8)------------|--(8)-----------|--(8)-------------|
|
|                             ~
|   E Q.   E E Q     +Q   E E H        E Q.   E E E E
|-----------------|----------------|------------------|
|-----------------|----------------|------------------|
|--------------3--|--(3)-----------|----------7-------|
|---8p5------6----|-------5s6-6----|---8p5------6-5s6-|
|-----------------|----------------|------------------|
|----------3------|----------------|------------------|


                  1.                                 2.
      To Coda
                                                      C5
                                                       PM------------------|
   W              W                 W                  E  E  E  E  E  E  E  E
|---------------|----------------|----------------||--------------------------|
|---------------|----------------|---------------o||--------------------------|
|---------------|----------------|----------------||--------------------------|
|---------------|----------------|----------------||--------------------------|
|---------------|----------------|---------------o||--10-10-10-10-10-10-10-10-|
|---------------|----------------|----------------||---8--8--8--8--8--8--8--8-|
|
|                                           ~
|  Q   E E H      E E E E E E Q    +Q   E E H          E  E  E  E  E  E  Q
|---------------|----------------|----------------||--------------------------|
|---------------|-3--------------|---------------o||--------------------------|
|---------------|---1---------3--|-(3)------------||---7-----------------3----|
|-(5)--5s6-6----|-----5s6---6----|------5s6-6-----||------6--5s=6-----6-------|
|---------------|----------------|---------------o||--------------------------|
|---------------|---------3------|----------------||---------------3----------|


 First Chorus
  C5                  Ab5             G5          G5   Bb5G5
   H     Q   S  +E.   H    Q  E +E    H    H      H    Q  Q
|-------------------|---------------|-----------|-------------|
|-------------------|---------------|-----------|-------------|
|-------------------|---------------|-----------|-------------|
|-10----10--10-(10)S|=6----6--6-(6)S|=5----5----|-5----8--5---|
|-10----10--10-(10)S|=6----6--6-(6)S|=5----5----|-5----8--5---|
|--8-----8---8--(8)S|=4----4--4-(4)S|=3----3----|-3----6--3---|


  C5              Eb5             D5          Gsus2  Eb5D5
  H    Q  S +E.   H    Q  E +E    H    H      E E Q  Q  Q
|---------------|---------------|-----------|---------------|
|---------------|---------------|-----------|---------------|
|-5----5--5-(5)S|=8----8--8-(8)-|-7----7----|-2-2----8--7---|
|-5----5--5-(5)S|=8----8--8-(8)S|=7----7----|-0-0----8--7---|
|-3----3--3-(3)S|=6----6--6-(6)S|=5----5----|-5-5----6--5---|
|---------------|---------------|-----------|-3-3-----------|


  C5                  Ab5
   H     Q   S  +E.   H    Q  E +E
|-------------------|---------------|
|-------------------|---------------|
|-------------------|---------------|
|-10----10--10-(10)S|=6----6--6-(6)S|
|-10----10--10-(10)S|=6----6--6-(6)S|
|--8-----8---8--(8)S|=4----4--4-(4)S|
|
| Gtr II
|  W                  W
|-------------------|---------------|
|-------------------|---------------|
|-------------------|---------------|
|-------------------|---------------|
|-------------------|---------------|
|-------------------|---------------|


  G5                       G5          Bb5   G5
  H     H                    H           Q   Q
|------------------------|-----------------------|
|------------------------|-----------------------|
|------------------------|-----------------------|
|-5-----5----------------|---5-----------8---5---|
|-5-----5----------------|---5-----------8---5---|
|-3-----3----------------|---3-----------6---3---|
|
|                                        >
|                            ~~~~
| H     Q   +E       +E     +Q    +Q    +H
|------20--(20)b21==(20)r|=(20)--(20)--(20)------|
|------------------------|-----------------------|
|------------------------|-----------------------|
|------------------------|-----------------------|
|------------------------|-----------------------|
|------------------------|-----------------------|


  C5              Eb5             D5          Gsus2  Eb5D5
  H    Q  S +E.   H    Q  E +E    H    H      E E Q  Q  Q
|---------------|---------------|-----------|---------------|
|---------------|---------------|-----------|---------------|
|-5----5--5-(5)S|=8----8--8-(8)S|=7----7----|-2-2----8--7---|
|-5----5--5-(5)S|=8----8--8-(8)S|=7----7----|-0-0----8--7---|
|-3----3--3-(3)S|=6----6--6-(6)S|=5----5----|-5-5----6--5---|
|---------------|---------------|-----------|-3-3-----------|


   Verse Riff
    Faster Q=153
    $
    C5    Db5   Eb5     Db5       Db5  C5    Db5   Eb5     Db5       Db5
    PM--------------------------|      PM--------------------------|
    E E E E E E E E   E E E E e e Q    E E E E E E E E   E E E E e e Q   4x
||------------------|----------------|-----------------|-----------------||
||o-----------------|----------------|-----------------|----------------o||
||--5-----6-----8---|---6---------6--|-5-----6-----8---|---6---------6---||
||--5-----6-----8---|---6---------6--|-5-----6-----8---|---6---------6---||
||o-3-3-3-4-3-3-6-3-|-3-4-3-3-1-3-4--|-3-3-3-4-3-3-6-3-|-3-4-3-3-1-3-4--o||
||------------------|----------------|-----------------|-----------------||


   Pre-Chorus
    C5    DbC5       C5    DbC5         C5    DbC5          C5 Db5BbC5Db5
                                PM--|               PM--|         PM|
    E S S E E H      E S S E q  E E E   E S S E E E E E E   Q  Q  E E Q
||-----------------|------------------|-------------------|----------------||
||o----------------|------------------|-------------------|---------------o||
||--5-----6-5------|-5-----6-5--------|-5-----6-5---------|-5--6------6----||
||--5-5-5-6-5------|-5-5-5-6-5--5-5-5-|-5-5-5-6-5-5-5-5-5-|-5--6--3-5-6----||
||o-3-3-3-4-3------|-3-3-3-4-3--3-3-3-|-3-3-3-4-3-3-3-3-3-|-3--4--1-3-4---o||
||-----------------|------------------|-------------------|----------------||


 Chorus
  Original Tempo Q=141
  C5                  Ab5                G5           G5   Bb5G5
   H     Q   S  +E.   H     Q    E +E     H    H      H    Q  Q
|-------------------|------------------|------------|-------------|
|-------------------|------------------|------------|-------------|
|-------------------|------------------|------------|-------------|
|-10----10--10-(10)S|=6-----6----6-(6)S|==5----5----|-5----8--5---|
|-10----10--10-(10)S|=6-----6----6-(6)S|==5----5----|-5----8--5---|
|--8-----8---8--(8)S|=4-----4----4-(4)S|==3----3----|-3----6--3---|
|
| Gtr II
|                                         ~~
|  W                  H     E  Q    E     W           W
|-------------------|------------------|------------|-------------|
|-------------------|------------------|------------|-------------|
|-------------------|------------------|------------|-------------|
|-------------------|------15-17---17--|-17---------|-------------|
|-------------------|------------------|------------|-------------|
|-------------------|------------------|------------|-------------|


  C5              Eb5             D5          Gsus2  Eb5D5
  H    Q  S +E.   H    Q  E +E    H    H      E E Q  Q  Q
|---------------|---------------|-----------|---------------|
|---------------|---------------|-----------|---------------|
|-5----5--5-(5)S|=8----8--8-(8)-|-7----7----|-2-2----8--7---|
|-5----5--5-(5)S|=8----8--8-(8)S|=7----7----|-0-0----8--7---|
|-3----3--3-(3)S|=6----6--6-(6)S|=5----5----|-5-5----6--5---|
|---------------|---------------|-----------|-3-3-----------|


  C5                  Ab5
   H     Q   S  +E.   H    Q  E +E
|-------------------|---------------|
|-------------------|---------------|
|-------------------|---------------|
|-10----10--10-(10)S|=6----6--6-(6)S|
|-10----10--10-(10)S|=6----6--6-(6)S|
|--8-----8---8--(8)S|=4----4--4-(4)S|
|
| Gtr II
|  W                  W
|-------------------|---------------|
|-------------------|---------------|
|-------------------|---------------|
|-------------------|---------------|
|-------------------|---------------|
|-------------------|---------------|


  G5                       G5          Bb5   G5
  H     H                    H           Q   Q
|------------------------|-----------------------|
|------------------------|-----------------------|
|------------------------|-----------------------|
|-5-----5----------------|---5-----------8---5---|
|-5-----5----------------|---5-----------8---5---|
|-3-----3----------------|---3-----------6---3---|
|
|                                        >
|                            ~~~~
| H     Q   +E       +E     +Q    +Q    +H
|------20--(20)b21==(20)r|=(20)--(20)--(20)------|
|------------------------|-----------------------|
|------------------------|-----------------------|
|------------------------|-----------------------|
|------------------------|-----------------------|
|------------------------|-----------------------|


                                                      D.S.
                                                      D.S.
  C5              Eb5             D5          Gsus2  Eb5D5
  H    Q  S +E.   H    Q  E +E    H    H      E E Q  Q  Q
|---------------|---------------|-----------|---------------|
|---------------|---------------|-----------|---------------|
|-5----5--5-(5)S|=8----8--8-(8)S|=7----7----|-2-2----8--7---|
|-5----5--5-(5)S|=8----8--8-(8)S|=7----7----|-0-0----8--7---|
|-3----3--3-(3)S|=6----6--6-(6)S|=5----5----|-5-5----6--5---|
|---------------|---------------|-----------|-3-3-----------|


 Guitar Solo
  &
  Bb5               C5                         Ab5
  Gtr III           Gtr II
                                   ~~~                         ~~
  E E E E E E Q      E      +Q.    Q.    +E     E  E  E  E  E  Q   E
|-----------------|--------------------------|-----------------------|
|-----------------|--------------------------|-----------------------|
|-7-----------3---|-12-----(12)---12----(12)-|----12-15-12-15-15-----|
|---6-5s6---6-----|-15b17==(15)---15----(15)r|=15-----------------15-|
|-----------------|--------------------------|-----------------------|
|---------3-------|--------------------------|-----------------------|
|
| Gtr I
| PM------------|
| E E E E E E E E    W                          W
|-----------------|--------------------------|-----------------------|
|-----------------|--------------------------|-----------------------|
|-----------------|--------------------------|-----------------------|
|-----------------|-10-----------------------|--6--------------------|
|-8-8-8-8-8-8-8-8-|-10-----------------------|--6--------------------|
|-6-6-6-6-6-6-6-6-|--8-----------------------|--4--------------------|


  G5                          Ab5           Bb5
                   |--3--|
   E  E      +Q    Q  Q  Q     E  +E   E  E  E  E  E  E
|---------------------------|-----------------------------|
|----13-----(13)--13-13-13--|-13-(13)---------------------|
|-12-15b17==(15)--15-15-15--|-15r(15)-15-12----12-15-12---|
|---------------------------|---------------15------------|
|---------------------------|-----------------------------|
|---------------------------|-----------------------------|
|
|  W                           H             H
|---------------------------|-----------------------------|
|---------------------------|-----------------------------|
|---------------------------|-----------------------------|
|--5------------------------|--6-------------8------------|
|--5------------------------|--6-------------8------------|
|--3------------------------|--4-------------6------------|


  G5                         Ab5
                 ~~~                      ~~~~~~~~~
   E      +Q.    Q.    +E     E      +E   Q   +Q    Q
|-15-----(15)---15----(15)-|-15-----(15)-15--(15)--15------|
|-18b20==(18)---18----(18)r|=18b20==(18)-18--(18)r=18b20===|
|--------------------------|-------------------------------|
|--------------------------|-------------------------------|
|--------------------------|-------------------------------|
|--------------------------|-------------------------------|
|
|  W                          W
|--------------------------|-------------------------------|
|--------------------------|-------------------------------|
|--------------------------|-------------------------------|
|--5-----------------------|--6----------------------------|
|--5-----------------------|--6----------------------------|
|--3-----------------------|--4----------------------------|


  G5                      Ab5         Bb5
   |--3--|
   Q  Q  Q  E  +Q    E     E  E  E  E  E  E  E  E
|-15-15-15-15-(15)------|--------------------------|
|-18-18-18-18r(18)--18--|-------18-15--------------|
|-----------------------|-15-17-------17-15-17-15--|
|-----------------------|--------------------------|
|-----------------------|--------------------------|
|-----------------------|--------------------------|
|
|  W                       H           H
|-----------------------|--------------------------|
|-----------------------|--------------------------|
|-----------------------|--------------------------|
|--5--------------------|--6-----------8-----------|
|--5--------------------|--6-----------8-----------|
|--3--------------------|--4-----------6-----------|


  Bb5C5                        Bb5
   Q    E E  E E  E E       +H       Q   +E  +E
|-------------------------|----------------------|
|-------------------------|----------------------|
|-12\---------------------|----------------------|
|--------------8----8b10==|=(8)-----[8]--(8)r(8)-|
|---------8-10---10-------|----------------------|
|-------------------------|----------------------|
|
|                 PM|                     PM-|
|  E Q.      Q    E E        E Q.    Q    E   E
|-------------------------|----------------------|
|-------------------------|----------------------|
|--3s5-------5------------|--5s3-----3-----------|
|--3s5-------5------------|--5s3-----3-----------|
|--1s3-------3----3-3-----|--3s1-----1----1---1--|
|-------------------------|----------------------|


    C5                   Eb5        Bb5
         ~~~~~~
  E  E   Q   H         E E  E  E  E  E  E  E
|-------------------|-------------------------|
|-------------------|------------------11-11--|
|-------------------|------12-10----12--------|
|-8-10--10--10------|-10-8-------10-----------|
|-------------------|-------------------------|
|-------------------|-------------------------|
|
|               PM|         PM|
| E  Q.      Q  E E    E E  E  E  E  E  E  E
|-------------------|-------------------------|
|-------------------|-------------------------|
|-3s=5-------5------|--5s8-----------3--------|
|-3s=5-------5------|--5s8--------8s=3--------|
|-1s=3-------3--3-3-|--3s6--6--6--6s=1--1--1--|
|-------------------|-------------------------|


  Bb5    C5                             Bb5
   E      E.  E.  E  +E   +E   +E     E  E   E  E  E  E  E  E
|----------------------------------|--------------------------|
|-11b13==11--11--11-(11)r(11)-(11)-|--------11-------11-------|
|----------------------------------|-10-12-----10-12----10-12-|
|----------------------------------|--------------------------|
|----------------------------------|--------------------------|
|----------------------------------|--------------------------|
|
|                          PM-|                          PM|
|  E      Q.      Q        E    E     E  Q.        Q     E  E
|----------------------------------|--------------------------|
|----------------------------------|--------------------------|
|--3s=====5-------5----------------|--5s=3---------3----------|
|--3s=====5-------5----------------|--5s=3---------3----------|
|--1s=====3-------3--------3----3--|--3s=1---------1-----1--1-|
|----------------------------------|--------------------------|


     C5                           Eb5          Bb5
                 |---3---|
   E  Q       E  Q  Q    Q      E  +Q     E  E  E  E  E
|----10------10-10-10---10---|-10-(10)-------------------|
|-11-13b15===13-13-13---13---|-13r(13)---13-------11-13--|
|----------------------------|--------------10-12--------|
|----------------------------|---------------------------|
|----------------------------|---------------------------|
|----------------------------|---------------------------|
|
|                     PM---|           PM|
|  E  Q.         Q    E    E    E   E  E  E  E  E  E  E
|----------------------------|---------------------------|
|----------------------------|---------------------------|
|--3s=5----------5-----------|--5s==8-----------3--------|
|--3s=5----------5-----------|--5s==8--------8s=3--------|
|--1s=3----------3----3----3-|--3s==6--6--6--6s=1--1--1--|
|----------------------------|---------------------------|


  Faster Q=153
  G5                                    Ab5
   E  S  S  E  S  S  E  S  S  E  S  S    S  S  S  S  S  S  S  S  S  S  S  S  S  S  S  S
|-10-13p10-10-15p10-10-13p10-10-15p10-|-13p10-15p10-13p10-15p10-13p10-15p10-13p10-15p10-|
|-------------------------------------|-------------------------------------------------|
|-------------------------------------|-------------------------------------------------|
|-------------------------------------|-------------------------------------------------|
|-------------------------------------|-------------------------------------------------|
|-------------------------------------|-------------------------------------------------|
|
|     PM---|         PM|                       PM---|            PM---|
|  E  E     E  E     E  E     E  E       E     E     E     E     E     E     E     E
|-------------------------------------|-------------------------------------------------|
|-------------------------------------|-------------------------------------------------|
|-------------------------------------|-------------------------------------------------|
|--5-----------5--------------5--5----|--6-----------------6-----------------6-----6----|
|--5-----------5--------------5--5----|--6-----------------6-----------------6-----6----|
|--3--3-----3--3-----3--3-----3--3----|--4-----4-----4-----4-----4-----4-----4-----4----|


  G5                            Ab5                   Bb5        Ab5
                                 |---3---|  |---3---|  |---3---|  |---3---|
   Q        +Q     Q    +Q       E  E    E  E  E    E  E  E    E  E  E    E
|-13b15====(13)---13---(13)r==|=15-13------13----------------------------------|
|-----------------------------|---------15----15---13-15-13------13------------|
|-----------------------------|-------------------------------15----15---------|
|-----------------------------|------------------------------------------15----|
|-----------------------------|------------------------------------------------|
|-----------------------------|------------------------------------------------|
|
|        PM|       PM|                PM---------|
|  E     E   E  E  E E   E  E    E    E     E    E     E    E     E    E
|-----------------------------|------------------------------------------------|
|-----------------------------|------------------------------------------------|
|-----------------------------|------------------------------------------------|
|--5------------5--------5--5-|--6---------------------8----8-----6----6-------|
|--5------------5--------5--5-|--6---------------------8----8-----6----6-------|
|--3-----3---3--3--3-3---3--3-|--4----4-----4----6-----6----6-----4----4-------|


  G5                       Ab5
   Q    +Q     Q    E  E    Q        +E   E  +E   +E   E       +E
|------------------------|-----------------------------------------|
|------------------------|-----------------------------------------|
|-12---(12)\-------10-12-|-12b14====(12)-12-(12)-(12)-12b14.5r(12)r|
|------------------------|-----------------------------------------|
|------------------------|-----------------------------------------|
|------------------------|-----------------------------------------|
|
|    PM|       PM|                PM|         PM-|
|  E E   E   E E E  E  E    E     E   E   E   E    E   E        E
|------------------------|-----------------------------------------|
|------------------------|-----------------------------------------|
|------------------------|-----------------------------------------|
|--5---------5------5--5-|--6-------------6------------6--------6--|
|--5---------5------5--5-|--6-------------6------------6--------6--|
|--3-3---3---3-3-3--3--3-|--4-----4---4---4---4----4---4--------4--|


  G5                    Ab5        Bb5    Ab5
      ~~    ~~
   E  E  E  H       E   E  E  E  E   E  E  E  E
|---------------------|----------------10-13-15--|
|---------------------|------------/13-----------|
|-10-12-12-12---------|------10-12---------------|
|---------------------|-8-10---------------------|
|---------------------|--------------------------|
|---------------------|--------------------------|
|
|     PM|     PM|          PM---|
|  E  E  E  E E E E E   E  E  E  E   E  E  E  E
|---------------------|--------------------------|
|---------------------|--------------------------|
|---------------------|--------------------------|
|--5--------5-----5-5-|-6------------8--8--6--6--|
|--5--------5-----5-5-|-6------------8--8--6--6--|
|--3--3--3--3-3-3-3-3-|-4--4--4--6---6--6--4--4--|


  Original Tempo Q=141
  C5                      Ab5
   H         Q   Q         Q   +Q    Q   Q
|-18b20=====18--18------|-18r=(18)--18--18-----|
|-----------------------|----------------------|
|-----------------------|----------------------|
|-----------------------|----------------------|
|-----------------------|----------------------|
|-----------------------|----------------------|
|
|  H         Q   S  +E.    H         Q   E +E
|-----------------------|----------------------|
|-----------------------|----------------------|
|-----------------------|----------------------|
|-10--------10--10-(10)S|==6---------6---6-(6)S|
|-10--------10--10-(10)S|==6---------6---6-(6)S|
|--8---------8---8--(8)S|==4---------4---4-(4)S|


  G5              G5          Bb5   G5
   Q   Q   H       E  E  E  E  E  E  S  S  E
|-18s=15--15----|-------13-------13-------15-|
|---------------|-13s15----15s13----13s15----|
|---------------|----------------------------|
|---------------|----------------------------|
|---------------|----------------------------|
|---------------|----------------------------|
|
|  H       H       H           Q     Q
|---------------|----------------------------|
|---------------|----------------------------|
|---------------|----------------------------|
|--5-------5----|--5-----------8-----5-------|
|--5-------5----|--5-----------8-----5-------|
|--3-------3----|--3-----------6-----3-------|


  C5                     Eb5
   H         Q   Q        Q   +Q    Q   Q
|-18b20=====18--18-----|-18r=(18)--18--18-----|
|----------------------|----------------------|
|----------------------|----------------------|
|----------------------|----------------------|
|----------------------|----------------------|
|----------------------|----------------------|
|
|  H         Q   S +E.    H         Q   E +E
|----------------------|----------------------|
|----------------------|----------------------|
|--5---------5---5-(5)S|==8---------8---8-(8)-|
|--5---------5---5-(5)S|==8---------8---8-(8)S|
|--3---------3---3-(3)S|==6---------6---6-(6)S|
|----------------------|----------------------|


  D5              Gsus2     Eb5 D5
   Q   Q   H       E  Q.    Q.    E
|-18s=15--15----|-15-15\-------------|
|---------------|--------------------|
|---------------|--------------------|
|---------------|--------------------|
|---------------|--------------------|
|---------------|--------------------|
|
|  H       H       E  E  Q  Q   Q
|---------------|--------------------|
|---------------|--------------------|
|--7-------7----|--2--2-----8---7----|
|--7-------7----|--0--0-----8---7----|
|--5-------5----|--5--5-----6---5----|
|---------------|--3--3--------------|


 Final Chorus
  C5                  Ab5
  Gtr I
   H     Q   S  +E.   H     Q    E +E
|-------------------|------------------|
|-------------------|------------------|
|-------------------|------------------|
|-10----10--10-(10)S|=6-----6----6-(6)S|
|-10----10--10-(10)S|=6-----6----6-(6)S|
|--8-----8---8--(8)S|=4-----4----4-(4)S|
|
| Gtr II
|  W                  H     E  Q    E
|-------------------|------------------|
|-------------------|------------------|
|-------------------|------------------|
|-------------------|------15-17---17--|
|-------------------|------------------|
|-------------------|------------------|


  G5                         G5          Bb5 G5
   H        H                  H          Q  Q
|--------------------------|---------------------|
|--------------------------|---------------------|
|--------------------------|---------------------|
|--5--------5--------------|---5----------8--5---|
|--5--------5--------------|---5----------8--5---|
|--3--------3--------------|---3----------6--3---|
|
|                 /1____|
|  ~~~                         ~~~~       ~~
|  Q.   E   Q    +E    +E     +Q    +Q    H
|---------[20]--(20)--(20)-|-(20)--(20)--18------|
|--------------------------|---------------------|
|--------------------------|---------------------|
|-17-----------------------|---------------------|
|--------------------------|---------------------|
|--------------------------|---------------------|


  C5              Eb5             D5          Gsus2  Eb5D5
  H    Q  S +E.   H    Q  E +E    H    H      E E Q  Q  Q
|---------------|---------------|-----------|---------------|
|---------------|---------------|-----------|---------------|
|-5----5--5-(5)S|=8----8--8-(8)-|-7----7----|-2-2----8--7---|
|-5----5--5-(5)S|=8----8--8-(8)S|=7----7----|-0-0----8--7---|
|-3----3--3-(3)S|=6----6--6-(6)S|=5----5----|-5-5----6--5---|
|---------------|---------------|-----------|-3-3-----------|


  C5                  Ab5             G5                    G5        Bb5 G5
   H     Q   S  +E.   H    Q  E +E    H     H                H         Q  Q
|-------------------|---------------|---------------------|-------------------|
|-------------------|---------------|---------------------|-------------------|
|-------------------|---------------|---------------------|-------------------|
|-10----10--10-(10)S|=6----6--6-(6)S|=5-----5-------------|--5---------8--5---|
|-10----10--10-(10)S|=6----6--6-(6)S|=5-----5-------------|--5---------8--5---|
|--8-----8---8--(8)S|=4----4--4-(4)S|=3-----3-------------|--3---------6--3---|
|
| Gtr II
|                                                      |
|                                               ~~~~~~~~~~~~~~~        ~~
|  W                  W               H.        E     +E     Q   +Q    H
|-------------------|---------------|----------20b22r(20)-|-18--(18)--15------|
|-------------------|---------------|---------------------|--x---------x------|
|-------------------|---------------|---------------------|-15--(15)--12------|
|-------------------|---------------|---------------------|-------------------|
|-------------------|---------------|---------------------|-------------------|
|-------------------|---------------|---------------------|-------------------|


  C5              Eb5             D5          Gsus2  Eb5D5
  H    Q  S +E.   H    Q  E +E    H    H      E E Q  Q  Q
|---------------|---------------|-----------|---------------|
|---------------|---------------|-----------|---------------|
|-5----5--5-(5)S|=8----8--8-(8)S|=7----7----|-2-2----8--7---|
|-5----5--5-(5)S|=8----8--8-(8)S|=7----7----|-0-0----8--7---|
|-3----3--3-(3)S|=6----6--6-(6)S|=5----5----|-5-5----6--5---|
|---------------|---------------|-----------|-3-3-----------|


 Outro
  C5
   W              +W                 +W
|--------------|------------------|----------------|
|--------------|------------------|----------------|
|--------------|------------------|----------------|
|-10-----------|-(10)-------------|-(10)-----------|
|-10-----------|-(10)-------------|-(10)-----------|
|--8-----------|--(8)-------------|--(8)-----------|
|
| Gtr III
|         ~
|  Q  E E H        E Q.   E E E E     Q   E E H
|--------------|------------------|----------------|
|--------------|------------------|----------------|
|--------------|----------7-------|----------------|
|-----5s6-6----|---8p5------6-5s6-|--(5)--5s6-6----|
|--------------|------------------|----------------|
|--------------|------------------|----------------|


   +W                +W               +W
|-----------------|----------------|------------------|
|-----------------|----------------|------------------|
|-----------------|----------------|------------------|
|-(10)------------|-(10)-----------|-(10)-------------|
|-(10)------------|-(10)-----------|-(10)-------------|
|--(8)------------|--(8)-----------|--(8)-------------|
|
|                             ~
|   E Q.   E E Q      Q   E E H        E Q.   E E E E
|-----------------|----------------|------------------|
|-----------------|----------------|------------------|
|--------------3--|----------------|----------7-------|
|---8p5------6----|-------5s6-6----|---8p5------6-5s6-|
|-----------------|----------------|------------------|
|----------3------|----------------|------------------|


                   H.=H               Q=70
   +W               +W                 +W            W
|----------------|------------------|-------------|--------*|
|----------------|------------------|-------------|--------*|
|----------------|------------------|-------------|--------*|
|-(10)-----------|-(10)-------------|-(10)--------|--------*|
|-(10)-----------|-(10)-------------|-(10)--------|--------*|
|--(8)-----------|--(8)-------------|--(8)--------|--------*|
|
|                                                    >
|   Q   E E H        E Q.   E E E E     W           +W
|----------------|------------------|-------------|--------*|
|----------------|------------------|-------------|--------*|
|----------------|--------------3---|-------------|--------*|
|--(5)--5s6-6----|---8p5------5---6-|---5---------|-(5)----*|
|----------------|------------------|-------------|--------*|
|----------------|----------3-------|-------------|--------*|




--------------------------------------------------------------------------------


Duration Legend
---------------
W - whole; H - half; Q - quarter; E - 8th; S - 16th; T - 32nd; X - 64th; a - acciaccatura
+ - note tied to previous; . - note dotted; .. - note double dotted
Uncapitalized letters represent notes that are staccato (1/2 duration)
Irregular groupings are notated above the duration line
Duration letters will always appear directly above the note/fret number it represents the
duration for.  Duration letters with no fret number below them represent rests.  Multi-
bar rests are notated in the form Wxn, where n is the number of bars to rest for.  Low
melody durations appear below the staff

Tablature Legend
----------------
 h   - hammer-on
 p   - pull-off
 b   - bend
 pb  - pre-bend
 r   - bend release (if no number after the r, then release immediately)
 /\  - slide into or out of (from/to "nowhere")
 s   - legato slide
 S   - shift slide
 - natural harmonic
[n]  - artificial harmonic
n(n) - tapped harmonic
 ~   - vibrato
 tr  - trill
 T   - tap
 TP  - trem. picking
 PM  - palm muting
\n/  - tremolo bar dip; n = amount to dip
 \n  - tremolo bar down
 n/  - tremolo bar up
/n\  - tremolo bar inverted dip
 =   - hold bend; also acts as connecting device for hammers/pulls
 <> - volume swell (louder/softer)
 x   - on rhythm slash represents muted slash
 o   - on rhythm slash represents single note slash

Misc Legend
-----------
 |  - bar
||  - double bar
||o - repeat start
o|| - repeat end
*|  - double bar (ending)
 :  - bar (freetime)
 $  - Segno
 &  - Coda
Tempo markers -  = BPM(8/16=s8/s16), where s8 = swing 8ths, s16 = swing 16ths


Tap to rate this tab
 
# A B C D E F G H I J K L M N O P Q R S T U V W X Y Z