Song name
# A B C D E F G H I J K L M N O P Q R S T U V W X Y Z

Smith Westerns - Tonight tab

The chords are:
   E  C#m  A   B

e|-0---4---5---7-|
B|-0---5---5---7-|
G|-1---6---6---8-|
D|-2---6---7---9-|
A|-2---4---7---9-|
E|-0---x---5---7-|
(guitar 2)
e|--11-11-11-11-11--13---11-11-11-11--10-------------------------------------|
B|--11-11-11-11-11--11---11-11-11-11--11-------------------------------------|
G|--12-12-12-12-12--12---12-12-12-12--12-------------------------------------|
D|---------------------------------------------------------------------------|
A|---------------------------------------------------------------------------|
E|---------------------------------------------------------------------------
x4
E                       C#m
We're dancin' and we're havin' fun
E                      C#m
I'm dancin' with my number one
e|---------------------------------------------------------------------------|
B|---------------------------------------------------------------------------|
G|---------------------------------------------------------------------------|
D|---------------------------------------------------------------------------|
A|---------------------------------------------------------------------------|
E|-0---2---4---5-------------------------------------------------------------|
A
And the night is goin' fast
B
I hope that it will last

E                   C#m
Everyone who's all around
E                 C#m
Gettin' up and gettin' down
e|---------------------------------------------------------------------------|
B|---------------------------------------------------------------------------|
G|---------------------------------------------------------------------------|
D|---------------------------------------------------------------------------|
A|---------------------------------------------------------------------------|
E|-0---2---4---5-------------------------------------------------------------|
A
To the groovy beat
B
Come on everybody move your feet
A
Get loose, get raw
                B
Get wrong, get right,
E
Tonight

E               C#m
Hey baby you're lookin' fine
E                C#m
Hey baby you're right on time
e|---------------------------------------------------------------------------|
B|---------------------------------------------------------------------------|
G|---------------------------------------------------------------------------|
D|---------------------------------------------------------------------------|
A|---------------------------------------------------------------------------|
E|-0---2---4---5-------------------------------------------------------------|
A
And the night is goin' fast
B
I hope that this will last

E                     C#m
The party's over but that's alright
E                      C#m
We'll go and dance at home tonight
e|---------------------------------------------------------------------------|
B|---------------------------------------------------------------------------|
G|---------------------------------------------------------------------------|
D|---------------------------------------------------------------------------|
A|---------------------------------------------------------------------------|
E|-0---2---4---5-------------------------------------------------------------|
A
To a groovy beat
B
Come on everybody move your feet

A
Get loose, get wet
    B
Get wrong, get right
Tonight

1st guitar solo: While the 1st guitar plays the solo you do the same as you did in the verse.

A
Get loose, get wet
    B
Get wrong, get right
Tonight

Tap to rate this tab
 
# A B C D E F G H I J K L M N O P Q R S T U V W X Y Z