Song name
# A B C D E F G H I J K L M N O P Q R S T U V W X Y Z

Smith Westerns - Still New tab

This is my first tab but hope that it's correct. Have a fun

standard tunning

chours ( during whole song )
e----8------7------5--x--5------8------7------5--x--5----------------|
b----8------8------5--x--5------8------8------5--x--5----------------|
g----9------9------5--x--5------9------9------5--x--5----------------|
d---10------9------7--x--7-----10------9------7--x--7----------------|
a---10-------------7--x--7-----10-------------7--x--7----------------|
E------------------5--x--5--------------------5--x--5----------------|

solo
e--------------------------------------------------------------------|
b--------------------------------------------------------------------|
g----8b(10)-10-8-----7b(9)-7-9-----5b(7)-777-------------------------|
d--------------------------------------------------------------------|
a--------------------------------------------------------------------|
E--------------------------------------------------------------------|

Solo sounds a little different cos Smith Westerns are using a lot of pedals .
For that solo they are using Fulltone OCD .
Tap to rate this tab
 
# A B C D E F G H I J K L M N O P Q R S T U V W X Y Z