Song name
# A B C D E F G H I J K L M N O P Q R S T U V W X Y Z

Smith - Girl Afraid tab

-------------------------------------------------------------------------------
                             SONG NAME - Band Name
-------------------------------------------------------------------------------
Tabbed by: Noxrad
Email: 

Tuning: E A D G B E (Capo 2)


     E  E  E  E  E  E  E  E     E  E  E  E  E  E  E  E      Q     Q    Q    E  E   
E||--------------------------|--------3-----0--------L--|-------------------------|
B||--------3--------1--------|-----------------1-----L--|---------3---------------|
G||--------------------------|-----2--L--------------0--|--(2)-----------------0--|
D||-----5--------2-----------|--3-----L--0-----------L--|---0----------L----------|
A||--5--------0--------0--1--|--------L-----------3--L--|--------------0----3-----|
E||--------------------------|--------------------------|-------------------------|


   E   E  E  Q    E  E  E     E  E  E  E  E  E  E  E     E  E  E  E  E  E  E  E   
-------1-------------------|--------------------------|--------3-----0--------L--|
----------3----------------|--------3--------1--------|-----------------1-----L--|
--(2)-------------------0--|--------------------------|-----2--L--------------0--|
---0--------------L--------|-----5--------2-----------|--3--------0-----------L--|
-------------0----0--3-----|--5--------0--------0--1--|--------L-----------3--L--|
---------------------------|--------------------------|--------------------------|


   Q     Q    Q    E  E      E   E  E  Q    E  E  E      Q     Q    Q    E  E   
-------------------------|-------1-------------------|-------------------------|
---------3---------------|----------3----------------|---------3---------------|
--(2)-----------------0--|--(2)-------------------0--|--(2)-----------------0--|
---0----------L----------|---0--------------L--------|---0----------L----------|
--------------0----3-----|-------------0----0--3-----|--------------0----3-----|
-------------------------|---------------------------|-------------------------|


   E   E  E  Q    E  E  E      Q     Q    Q    E  E      E   E  E  Q    E  E  E   
---------------------------|---------1---------------|-------1-------------------|
-------3-----3-------------|-------------------------|----------3----------------|
--(2)--2-----2----------0--|--(2)-----------------0--|--(2)-------------------0--|
---0--------------L--------|---0----------L----------|---0--------------L--------|
------------------0--3-----|--------------0----3-----|-------------0----0--3-----|
---------------------------|-------------------------|---------------------------|


  E  E  E  E  Q    E  E     E  E  E  E  Q    E  E      Q     Q    Q    E  E   
--------------0----------|--------------0----------|-------------------------|
-----6-------------6-----|-----6-------------6-----|---------3---------------|
--------5-------------5--|--------5-------------0--|--(2)-----------------0--|
-----------3-------------|-----------3-------------|---0----------L----------|
--3----------------------|--3----------------------|--------------0----3-----|
-------------------------|-------------------------|-------------------------|


   E   E  E  Q    E  E  E      Q     Q    Q    E  E      E   E  E  Q    E  E  E   
-------1-------------------|-------------------------|---------------------------|
----------3----------------|---------3---------------|-------3-----3-------------|
--(2)-------------------0--|--(2)-----------------0--|--(2)--2-----2----------0--|
---0--------------L--------|---0----------L----------|---0--------------L--------|
-------------0----0--3-----|--------------0----3-----|------------------0--3-----|
---------------------------|-------------------------|---------------------------|


   Q     Q    Q    E  E      E   E  E  Q    E  E  E     E  E  E  E  Q    E  E   
---------1---------------|-------1-------------------|--------------0----------|
-------------------------|----------3----------------|-----6-------------6-----|
--(2)-----------------0--|--(2)-------------------0--|--------5-------------5--|
---0----------L----------|---0--------------L--------|-----------3-------------|
--------------0----3-----|-------------0----0--3-----|--3----------------------|
-------------------------|---------------------------|-------------------------|


  E  E  E  E  Q    E  E      Q     Q    Q    E  E      E   E  E  Q    E  E  E   
--------------0----------|-------------------------|-------1-------------------|
-----6-------------6-----|---------3---------------|----------3----------------|
--------5-------------0--|--(2)-----------------0--|--(2)-------------------0--|
-----------3-------------|---0----------L----------|---0--------------L--------|
--3----------------------|--------------0----3-----|-------------0----0--3-----|
-------------------------|-------------------------|---------------------------|


  E  E  E  E  E  E  E  E     E  E  E  E  E  E  E  E      Q     Q    Q    E  E   
--------------------------|--------3-----0--------L--|-------------------------|
--------3--------1--------|-----------------1-----L--|---------3---------------|
--------------------------|-----2--L--------------0--|--(2)-----------------0--|
-----5--------2-----------|--3--------0-----------L--|---0----------L----------|
--5--------0--------0--1--|--------L-----------3--L--|--------------0----3-----|
--------------------------|--------------------------|-------------------------|


   E   E  E  Q    E  E  E     E  E  E  E  E  E  E  E     Q    Q    Q    Q     
-------1-------------------|-----------------3-----0--|----------------------|
----------3----------------|--------1-----------------|--1---------0---------|
--(2)-------------------0--|--------------0-----------|-----------------0----|
---0--------------L--------|-----2-----2--------2-----|----------------------|
-------------0----0--3-----|--0-----------------------|-------0--------------|
---------------------------|--------------------------|----------------------|


   Q     Q    Q    E  E      E   E  E  Q    E  E  E     E  E  E  E  E  E  E  E   
-------------------------|-------1-------------------|--------------------------|
---------3---------------|----------3----------------|--------3--------1--------|
--(2)-----------------0--|--(2)-------------------0--|--------------------------|
---0----------L----------|---0--------------L--------|-----5--------2-----------|
--------------0----3-----|-------------0----0--3-----|--5--------0--------0--1--|
-------------------------|---------------------------|--------------------------|


  E  E  E  E  E  E  E  E      Q     Q    Q    E  E      E   E  E  Q    E  E  E   
--------3-----0--------L--|-------------------------|-------1-------------------|
-----------------1-----L--|---------3---------------|----------3----------------|
-----2--L--------------0--|--(2)-----------------0--|--(2)-------------------0--|
--3--------0-----------L--|---0----------L----------|---0--------------L--------|
--------L-----------3-----|--------------0----3-----|-------------0----0--3-----|
--------------------------|-------------------------|---------------------------|


  E  E  E  E  E  E  E  E     E   E  E  E  E  E  E  E     E  E  E  E  E  E  E  E   
--------------------------|---------------------------|--------------------------|
--------5--------5--------|---------8-----------------|--------5--------5--------|
--------5--------5--------|---------9--------7--------|--------5--------5--------|
-----7--------------------|-----10-----------9--------|-----7--------------------|
--0-----------0--------0--|--0------------0--------0--|--0-----------0--------0--|
--------------------------|---------------------------|--------------------------|


  E   E  E  E  E  E  E  E      E   E  E  E  E  E  E  E     E  E  E  E  E  E  E  E   
---------------------------|----------------------------|-----------------2--------|
---------8-----------------|----------1--------1--------|--------3--------3--------|
---------9--------7--------|----------2--------2--------|--------2-----------------|
-----10-----------9--------|--(3)--3--------------------|-----4--------------------|
--0------------0--------0--|---3------------3--------0--|--2-----------2--------0--|
---------------------------|----------------------------|--------------------------|


  E  E  E  E  E  E  E  E     E  E  E  E   E   E  E  E     E  E  E   E  E    E   E  E   
--------------2-----0-----|----------------------------|------------------------------|
-----------2-----------0--|---------------2------0-----|-----3---------7-------10--8--|
--------2-----------------|-----------0--(2)--2-----0--|--4-----4S--7--7S--11------9--|
-----4-----------4--L-----|--------0-----(2)-----------|------------------------------|
--4-----------------------|-----2----------------------|------------------------------|
--------------------------|--3-------------------------|------------------------------|


  E  Q     E  E  E   Q       E  E  E    E   E   E  E  E     E  Q.      E  E  Q     
--------------------------|------------------------------|------------------------|
-----7~-------8--8--10----|-----0------(3)--3------7--5--|-----3~------5-----7----|
-----7--------9-----11----|--0-----0h---4---4S--7-----6--|-----4-------6-----7----|
--------------------------|------------------------------|------------------------|
--------------------------|------------------------------|------------------------|
--------------------------|------------------------------|------------------------|


  E  E  E   E  E    E   E  E     E  Q     E  E  E   Q       E  E  E    E   E   E  E  E   
------------------------------|--------------------------|------------------------------|
-----3---------7-------10--8--|-----7~-------8--8--10----|-----0------(3)--3------7--5--|
--4-----4S--7--7S--11------9--|-----7--------9-----11----|--0-----0h---4---4S--7-----6--|
------------------------------|--------------------------|------------------------------|
------------------------------|--------------------------|------------------------------|
------------------------------|--------------------------|------------------------------|


  E  Q.      E  E  Q       E  E  E   E  E    E   E  E     E  Q     E  E  E   Q     
------------------------|------------------------------|--------------------------|
-----3~------5-----7----|-----3---------7-------10--8--|-----7~-------8--8--10----|
-----4-------6-----7----|--4-----4S--7--7S--11------9--|-----7--------9-----11----|
------------------------|------------------------------|--------------------------|
------------------------|------------------------------|--------------------------|
------------------------|------------------------------|--------------------------|


  E  E  E    E   E   E  E  E     E  Q.      E  E  Q       E  E  E   E  E    E   E  E   
------------------------------|------------------------|------------------------------|
-----0------(3)--3------7--5--|-----3~------5-----7----|-----3---------7-------10--8--|
--0-----0h---4---4S--7-----6--|-----4-------6-----7----|--4-----4S--7--7S--11------9--|
------------------------------|------------------------|------------------------------|
------------------------------|------------------------|------------------------------|
------------------------------|------------------------|------------------------------|


  E  Q     E  E  E   Q       E  E  E    E   E   E  E  E     E  Q.      E  E  E    E    
--------------------------|------------------------------|----------------------------|
-----7~-------8--8--10----|-----0------(3)--3------7--5--|-----3~------5-----7--------|
-----7--------9-----11----|--0-----0h---4---4S--7-----6--|-----4-------6-----7--\(4)--|
--------------------------|------------------------------|----------------------------|
--------------------------|------------------------------|----------------------------|
--------------------------|------------------------------|----------------------------|


  E  E  E  E  E  E  E  E      E  E  E  E  E  E  E  E      Q     Q    Q    E  E   
--3--------3--------3-----|------8--------8-----------|-------------------------|
-----3--------3--------3--|---------8--------8--------|---------3---------------|
--L-----4--------4--------|--/9--------9--------9--0--|--(2)-----------------0--|
--------------------------|---------------------------|---0----------L----------|
--------------------------|---------------------------|--------------0----3-----|
--------------------------|---------------------------|-------------------------|


   E   E  E  Q    E  E  E      Q     Q    Q    E  E      E   E  E  Q    E  E  E   
-------1-------------------|-------------------------|-------1-------------------|
----------3----------------|---------3---------------|----------3----------------|
--(2)-------------------0--|--(2)-----------------0--|--(2)-------------------0--|
---0--------------L--------|---0----------L----------|---0--------------L--------|
-------------0----0--3-----|--------------0----3-----|-------------0----0--3-----|
---------------------------|-------------------------|---------------------------|


  E  E  E  E  Q    E  E     E  E  E  E  Q    E  E      Q     Q    Q    E  E   
--------------0----------|--------------0----------|-------------------------|
-----6-------------6-----|-----6-------------6-----|---------3---------------|
--------5-------------5--|--------5-------------0--|--(2)-----------------0--|
-----------3-------------|-----------3-------------|---0----------L----------|
--3----------------------|--3----------------------|--------------0----3-----|
-------------------------|-------------------------|-------------------------|


   E   E  E  Q    E  E  E      Q     Q    Q    E  E      E   E  E  Q    E  E  E   
-------1-------------------|-------------------------|---------------------------|
----------3----------------|---------3---------------|-------3-----3-------------|
--(2)-------------------0--|--(2)-----------------0--|--(2)--2-----2----------0--|
---0--------------L--------|---0----------L----------|---0--------------L--------|
-------------0----0--3-----|--------------0----3-----|------------------0--3-----|
---------------------------|-------------------------|---------------------------|


   Q     Q    Q    E  E      E   E  E  Q    E  E  E     E  E  E  E  Q    E  E   
---------1---------------|-------1-------------------|--------------0----------|
-------------------------|----------3----------------|-----6-------------6-----|
--(2)-----------------0--|--(2)-------------------0--|--------5-------------5--|
---0----------L----------|---0--------------L--------|-----------3-------------|
--------------0----3-----|-------------0----0--3-----|--3----------------------|
-------------------------|---------------------------|-------------------------|


  E  E  E  E  Q    E  E      Q     Q    Q    E  E      E   E  E  Q    E  E  E   
--------------0----------|-------------------------|-------1-------------------|
-----6-------------6-----|---------3---------------|----------3----------------|
--------5-------------0--|--(2)-----------------0--|--(2)-------------------0--|
-----------3-------------|---0----------L----------|---0--------------L--------|
--3----------------------|--------------0----3-----|-------------0----0--3-----|
-------------------------|-------------------------|---------------------------|


  E  E  E  E  E  E  E  E     E  E  E  E  E  E  E  E      Q     Q    Q    E  E   
--------------------------|--------3-----0--------L--|-------------------------|
--------3--------1--------|-----------------1-----L--|---------3---------------|
--------------------------|-----2--L--------------0--|--(2)-----------------0--|
-----5--------2-----------|--3--------0-----------L--|---0----------L----------|
--5--------0--------0--1--|--------L-----------3--L--|--------------0----3-----|
--------------------------|--------------------------|-------------------------|


   E   E  E  Q    E  E  E     E  E  E  E  E  E  E  E     Q    Q    Q    Q     
-------1-------------------|-----------------3-----0--|----------------------|
----------3----------------|--------1-----------------|--1---------0---------|
--(2)-------------------0--|--------------0-----------|-----------------0----|
---0--------------L--------|-----2-----2--------2-----|----------------------|
-------------0----0--3-----|--0-----------------------|-------0--------------|
---------------------------|--------------------------|----------------------|


   Q     Q    Q    E  E      E   E  E  Q    E  E  E     E  E  E  E  E  E  E  E   
-------------------------|-------1-------------------|--------------------------|
---------3---------------|----------3----------------|--------3--------1--------|
--(2)-----------------0--|--(2)-------------------0--|--------------------------|
---0----------L----------|---0--------------L--------|-----5--------2-----------|
--------------0----3-----|-------------0----0--3-----|--5--------0--------0--1--|
-------------------------|---------------------------|--------------------------|


  E  E  E  E  E  E  E  E      Q     Q    Q    E  E      E   E  E  Q    E  E  E   
--------3-----0--------L--|-------------------------|-------1-------------------|
-----------------1-----L--|---------3---------------|----------3----------------|
-----2--L--------------0--|--(2)-----------------0--|--(2)-------------------0--|
--3--------0-----------L--|---0----------L----------|---0--------------L--------|
--------L-----------3--L--|--------------0----3-----|-------------0----0--3-----|
--------------------------|-------------------------|---------------------------|


  E  E  E  E  E  E  E  E     E   E  E  E  E  E  E  E     E  E  E  E  E  E  E  E   
--------------------------|---------------------------|--------------------------|
--------5--------5--------|---------8-----------------|--------5--------5--------|
--------5--------5--------|---------9--------7--------|--------5--------5--------|
-----7--------------------|-----10-----------9--------|-----7--------------------|
--0-----------0--------0--|--0------------0--------0--|--0-----------0--------0--|
--------------------------|---------------------------|--------------------------|


  E   E  E  E  E  E  E  E      E   E  E  E  E  E  E  E     E  E  E  E  E  E  E  E   
---------------------------|----------------------------|-----------------2--------|
---------8-----------------|----------1--------1--------|--------3--------3--------|
---------9--------7--------|----------2--------2--------|--------2-----------------|
-----10-----------9--------|--(3)--3--------------------|-----4--------------------|
--0------------0--------0--|---3------------3--------0--|--2-----------2--------0--|
---------------------------|----------------------------|--------------------------|


  E  E  E  E  E  E  E  E     E  E  E  E   E   E  E  E     E  E  E   E  E    E   E  E   
--------------2-----0-----|----------------------------|------------------------------|
-----------2-----------0--|---------------2------0-----|-----3---------7-------10--8--|
--------2-----------------|-----------0--(2)--2-----0--|--4-----4S--7--7S--11------9--|
-----4-----------4--L-----|--------0-----(2)-----------|------------------------------|
--4-----------------------|-----2----------------------|------------------------------|
--------------------------|--3-------------------------|------------------------------|


  E  Q     E  E  E   Q       E  E  E    E   E   E  E  E     E  Q.      E  E  Q     
--------------------------|------------------------------|------------------------|
-----7~-------8--8--10----|-----0------(3)--3------7--5--|-----3~------5-----7----|
-----7--------9-----11----|--0-----0h---4---4S--7-----6--|-----4-------6-----7----|
--------------------------|------------------------------|------------------------|
--------------------------|------------------------------|------------------------|
--------------------------|------------------------------|------------------------|


  E  E  E   E  E    E   E  E     E  Q     E  E  E   Q       E  E  E    E   E   E  E  E   
------------------------------|--------------------------|------------------------------|
-----3---------7-------10--8--|-----7~-------8--8--10----|-----0------(3)--3------7--5--|
--4-----4S--7--7S--11------9--|-----7--------9-----11----|--0-----0h---4---4S--7-----6--|
------------------------------|--------------------------|------------------------------|
------------------------------|--------------------------|------------------------------|
------------------------------|--------------------------|------------------------------|


  E  Q.      E  E  Q       E  E  E   E  E    E   E  E     E  Q     E  E  E   Q     
------------------------|------------------------------|--------------------------|
-----3~------5-----7----|-----3---------7-------10--8--|-----7~-------8--8--10----|
-----4-------6-----7----|--4-----4S--7--7S--11------9--|-----7--------9-----11----|
------------------------|------------------------------|--------------------------|
------------------------|------------------------------|--------------------------|
------------------------|------------------------------|--------------------------|


  E  E  E    E   E   E  E  E     E  Q.      E  E  Q       E  E  E   E  E    E   E  E   
------------------------------|------------------------|------------------------------|
-----0------(3)--3------7--5--|-----3~------5-----7----|-----3---------7-------10--8--|
--0-----0h---4---4S--7-----6--|-----4-------6-----7----|--4-----4S--7--7S--11------9--|
------------------------------|------------------------|------------------------------|
------------------------------|------------------------|------------------------------|
------------------------------|------------------------|------------------------------|


  E  Q     E  E  E   Q       E  E  E    E   E   E  E  E     E  Q.      E  E  E    E    
--------------------------|------------------------------|----------------------------|
-----7~-------8--8--10----|-----0------(3)--3------7--5--|-----3~------5-----7--------|
-----7--------9-----11----|--0-----0h---4---4S--7-----6--|-----4-------6-----7--\(4)--|
--------------------------|------------------------------|----------------------------|
--------------------------|------------------------------|----------------------------|
--------------------------|------------------------------|----------------------------|


                                                         ^                 
  E  E  E  E  E  E  E  E      E  E  E  E  E  E  E  E     W                 
--3--------3--------3-----|------8--------8-----------|--1----------------|
-----3--------3--------3--|---------8--------8--------|--3----------------|
--L-----4--------4--------|--/9--------9--------9--0--|--2----------------|
--------------------------|---------------------------|--0----------------|
--------------------------|---------------------------|-------------------|
--------------------------|---------------------------|-------------------|


  W                  
--L----------------||
--L----------------||
--L----------------||
--L----------------||
-------------------||
-------------------||




Duration Legend
---------------
W - whole
H - half
Q - quarter
E - 8th
S - 16th
T - 32nd
X - 64th
. - note dotted
|-n-|  - n-tuplets


Tablature Legend
----------------
L - tied note
x - dead note
g - grace note
(n) - ghost note
> - accentuded note
NH - natural harmonic
AH - artificial harmonic
TH - tapped harmonic
SH - semi harmonic
PH - pitch harmonic
h - hammer on
p - pull off
b - bend
br - bendRelease
pb - preBend
pbr - preBendRelease
brb - bendReleaseBend
\n/ - tremolo bar dip
\n - tremolo bar dive
-/n - tremolo bar Release up
/n\ - tremolo bar inverted dip
/n - tremolo bar return
-\n - tremolo bar Release down
S - shift slide
s - legato slide
/ -  slide into from below or out of upwards
\ -  slide into from above or out of downwards
~ - vibrato
W - wide vibrato
tr - trill
TP - tremolo picking
T - tapping
S - slap
P - pop
< - fade in
^ - brush up
v - brush down
Tap to rate this tab
# A B C D E F G H I J K L M N O P Q R S T U V W X Y Z