Song name
# A B C D E F G H I J K L M N O P Q R S T U V W X Y Z

Smiths Cloud - A Change Of Days chords

Highlighted       Show chord diagrams
Smith's Cloud - A Change Of Days


As interpreted by Dempario


As made famous or at least known to me through the video of the blind kitten
playing with a ball from College Humor.  There are notes at the bottom and a
tab for the harmonica solo, if you wish to play that.


INTRO.

C x4


VERSE I.

C               G        Am
   You shake it baby all day and all night

C                  G            Am
   You are getting tired of the wait

C                  G               Bb        F
   Letís throw the wrench into the notes and rhyme

             Am          G         C
   And weíll call it a  change of days

C              G              Am
   And all the changes of the water and wine

C            G             Am
   I see the metaphor this way

C                G               Bb        F
   Letís throw a wrench into the space and time

           Am        G         C
   For the sake of a change of days


CHORUS.

      F                               Am              G
   So come on all you people ainít it hard for you to know

   Am                              Gadd4   G
   Celebrate in all the things you say

C                 G             Bb          F
   The part where everything is safe or explodes

             Am        G         C
   And weíll call it a change of days


HARMONICA SOLO. (Tab in the bottom notes)

C   G  Am  Am
C   G  Am  Am
C   G  Bb  F
Am  G  C   C


INTERLUDE. (Oooh...)

C    D7
Am   D7


VERSE II.

C              G              Am
   Say can you see the shiny place in the sky

C               G                     Am
   Sick of your wandering through the haze

C              G              Bb            F
   They say we go to a better place when we die

            Am        G         Am
   And they call it a change of days

            Am        G         C         Csus4  C
   And they call it a change of days


NOTES.

At the end of the last verse, note that it's Am-G-Am the first time, as opposed
to Am-G-C as before.

If you wish to play the harmonica solo on a guitar, you could play it something
like this (you should be able to figure out the timing yourself):

e-|--------------------------------------------------------|
B-|--------------------------------------------------------|
G-|-5/12~~~~~~~~----9--------------------------------------|
D-|--------------------------------------------------------|
A-|--------------------------------------------------------|
E-|--------------------------------------------------------|

e-|--------------------------------------------------------|
B-|--------------------------------------------------------|
G-|-5/12~~~~~~~~----14-12----------------------------------|
D-|-----------------------14-------------------------------|
A-|--------------------------------------------------------|
E-|--------------------------------------------------------|

e-|--------------------------------------------------------|
B-|----------------10-8------------------------------------|
G-|-5/9~~~~~~~~---------10-9-------------------------------|
D-|-----------------------------10---10--------------------|
A-|--------------------------------------------------------|
E-|--------------------------------------------------------|

e-|--------------------------------------------------------|
B-|--------------------------------------------------------|
G-|--------------------------------------------------------|
D-|-12-12---14---10--5-------------------------------------|
A-|--------------------------------------------------------|
E-|--------------------------------------------------------|
Tap to rate this tab
# A B C D E F G H I J K L M N O P Q R S T U V W X Y Z