Song name
# A B C D E F G H I J K L M N O P Q R S T U V W X Y Z

Smiths - Handsome Devil tab

(capo on the 2nd fret)

Intro/Chorus
E |--------------------------------|---------------------------------|
B |--------------------------------|---------------------------------|
G |--------------------------------|-------------2--------0-------0--|
D |-----------------3-------2------|---------------------------------|
A |-0-----------3------------------|-0----------------3-------2------|
E |--------------------------------|---------------------------------|

E |--------------------------------|---------------------------------|
B |--------------------------------|-------------0-------------------|
G |--------------------------------|----------------------0-------0--|
D |-----------------3-------2------|---------------------------------|
A |-0-----------3------------------|-0----------------3-------2------|
E |--------------------------------|---------------------------------|

Verse
E |--------------------------------|---------------------------------|
B |-------------------------0--0---|---1-X-1--1---0----1-X--1--1--0--|
G |-2--X--2--2---0----2--X-------0-|---2-X-2--2---0----2-X--2--2--0--|
D |-2--X--2--2---0----2--X---------|---------------------------------|
A |--------------------------------|---------------------------------|
E |--------------------------------|---------------------------------|

Chorus Ending
E |---------------------------------0~~------------------------------|
B |---1----0--0----------1----0--0---------1---0--0-------0----0---1-|
G |----------------0~~------------------------------0--------0-------|
D |------------------------------------------------------------------|
A |------------------------------------------------------------------|
E |------------------------------------------------------------------|
Tap to rate this tab
# A B C D E F G H I J K L M N O P Q R S T U V W X Y Z