Song name
# A B C D E F G H I J K L M N O P Q R S T U V W X Y Z

Smiths - The Click Track tab

The Click Track (Fast One - Demo)
The Smiths

Theres a couple of alternate endings in there, so hope its okay to read :)

Guitar (Capo 2):

     Q    Q    Q    Q       E  E  E  E  Q    E  E     Q    Q    Q    Q     
E||-----------------0----|-------------------------|----------------------|
B||--0---------0---------|----------------------0--|--0---------0---------|
G||-------2--------------|--------------2----------|-------2---------2----|
D||----------------------|--4--------4-------4-----|----------------------|
A||----------------------|--------4----------------|----------------------|
E||----------------------|-----2-------------------|----------------------|


    Q    E  E  E  E  Q       Q    E  E  E  Q    E     Q    E  E  E  E  Q     
|-------------------------|------------------------|------------------------|
|---2----2--2--2--2-------|--2----2--2--2--2----2--|--3----3--3--3--3--3----|
|*--2----2--2--2--2-------|--2----2--2--2--2----2--|--4----2--4--2--4--2----|
|*--2----2--2--2--2-------|--4----4--4--4--4----4--|--4----4--4--4--4--4----|
|---0----0--0--0--0--2----|--4----4--4--4--4----4--|--2----2--2--2--2--2----|
|--------------------0----|--2----2--2--2--2----2--|------------------------|


  Q    Q    E  E  E  E     Q    E  E  E  E  Q       Q    E  E  E  E  Q   
                          (1st, 2nd ending)
------------------------|------------------------|-------------------------||
------------------------|--2----2--2--2--2-------|--2----2--2--2--2--------||
--1----1----1--1--1--1--|--2----2--2--2--2-------|--2----2--2--2--2-------*||
--2----2----2--2--2--2--|--4----4--4--4--4--2----|--4----4--4--4--4--2----*||
--2----2----2--2--2--2--|--4----4--4--4--4--2----|--4----4--4--4--4--2-----||
--0----0----0--0--0--0--|--2----2--2--2--2--0----|--2----2--2--2--2--0-----||


  Q    Q    Q    E  E     E  Q    E  Q    Q       Q    Q    Q    E  E  
(3rd ending) 
-----------------0-----|------------------0----|-----------------0-----|
--2---------0-------2--|--L--2-------0---------|--2---------0-------2--|
-------2---------------|----------2------------|-------2---------------|
-----------------------|-----------------------|-----------------------|
-----------------------|-----------------------|-----------------------|
-----------------------|-----------------------|-----------------------|


  E  Q    E  Q    Q       Q    E  H        E     E  Q    E  E  E  Q     
-----------------------|----------------------|-------------4----------|
--L--2-------0----0----|----------4-----------|-------------------4----|
----------2------------|-------4--------------|-----4------------------|
-----------------------|--6----------------6--|--L-------6-----6-------|
-----------------------|----------------------|------------------------|
-----------------------|----------------------|------------------------|


  Q    E  E  E  E  E  E     E  E  E  E  E  E  E  E     Q    Q    Q    E  E   
--4----4--4--4--4--4--4--|-----4--4--4--4--4--4--4--|-----------------0-----|
--5----5--5--5--5--5--5--|-----5--5--5--5--5--5--5--|--2---------0-------2--|
--6----6--6--6--6--6--6--|-----6--6--6--6--6--6--6--|-------2---------------|
--6----6--6--6--6--6--6--|-----6--6--6--6--6--6--6--|-----------------------|
--4----4--4--4--4--4--4--|--L--4--4--4--4--4--4--4--|-----------------------|
-------------------------|--------------------------|-----------------------|


                          ^                                     
  E  Q    E  Q    Q       W                   W                 
-----------------------|--0----------------|--L----------------|
--L--2-------0---------|--2----------------|--L----------------|
----------2-------2----|--2----------------|--L----------------|
-----------------------|-------------------|--L----------------|
-----------------------|--0----------------|--L----------------|
-----------------------|-------------------|-------------------|


    Q    E  E  E  E  E  E     Q    E  Q    Q    E     Q    E  Q    Q    E   
|---4----4--4--4--4--4--4--|-----------------------|-----------------------|
|---5----5--5--5--5--5--5--|--0----0--0----0----0--|--4----4--4----4----2--|
|*--6----6--6--6--6--6--6--|--1----1--1----1----1--|--4----4--4----4----2--|
|*--6----6--6--6--6--6--6--|--2----2--2----2----2--|--6----6--6----6----2--|
|---4----4--4--4--4--4--4--|--2----2--2----2----2--|--6----6--6----6----0--|
|--------------------------|--0----0--0----0----0--|--4----4--4----4-------|


  E  E  E  Q    Q.        Q    E  E  E  E  Q       Q    E  Q    Q    E   
-----------------------|--4----4--4--4--4--4----|-----------------------|
-----2--2--7----7------|--5----5--5--5--5--5----|--0----0--0----0----0--|
-----2--2--7----7------|--6----6--6--6--6--6----|--1----1--1----1----1--|
-----2--2--7----7------|--6----6--6--6--6--6----|--2----2--2----2----2--|
--L--0--0--5----5------|--4----4--4--4--4--4----|--2----2--2----2----2--|
-----------------------|------------------------|--0----0--0----0----0--|


  Q    E  Q    Q    E     E  E  E  Q    Q.          Q    Q    Q    E  E   
-----------------------|-----------2----3-------||-----------------0-----|
--4----4--4----4----2--|-----2--2--3----4-------||--2---------0-------2--|
--4----4--4----4----2--|-----2--2--4----5------*||-------2---------------|
--6----6--6----6----2--|-----2--2--------------*||-----------------------|
--6----6--6----6----0--|--L--0--0---------------||-----------------------|
--4----4--4----4-------|------------------------||-----------------------|


                          ^                                     
  E  Q    E  Q    Q       W                   W                 
-----------------------|--0----------------|--L----------------|
--L--2-------0---------|--2----------------|--L----------------|
----------2-------2----|--2----------------|--L----------------|
-----------------------|-------------------|-------------------|
-----------------------|-------------------|-------------------|
-----------------------|-------------------|-------------------|


  W                   W                  
--L----------------|--L----------------||
--L----------------|--L----------------||
--L----------------|--L----------------||
-------------------|-------------------||
-------------------|-------------------||
-------------------|-------------------||




Duration Legend
---------------
W - whole
H - half
Q - quarter
E - 8th
S - 16th
T - 32nd
X - 64th
. - note dotted
|-n-|  - n-tuplets


Tablature Legend
----------------
L - tied note
x - dead note
Tap to rate this tab
# A B C D E F G H I J K L M N O P Q R S T U V W X Y Z