Song name
# A B C D E F G H I J K L M N O P Q R S T U V W X Y Z

Smiths - Back To The Old House tab

Back to the old house

Chorus
G |--------------------------------|--------------------------------|
D |--------------------\4--\--7----|--------------------------------|
A |-5------------------------------|-2------------------------------|
E |--------------------------------|-----------------3--------------|

G |--------------------------------|--------------------------------|
D |--------------------\4--\--7----|--------------------------------|
A |-5------------------------------|-2---------0--------------------|
E |--------------------------------|-----------------3-------5------|

G |--------------------------------|--------------------------------|
D |--------------------\4--\--7----|--------------------------------|
A |-5------------------------------|-2------------------------------|
E |--------------------------------|-----------------3--------------|

G |--------------------------------|-----------4-------------7------|
D |--------------------\4--\--7----|-2---------------5--------------|
A |-5------------------------------|--------------------------------|
E |--------------------------------|--------------------------------|

Bridge
G |--------------------------------|--------------------------------||
D |--------------------------------|--------------------------------||
A |-----------------5--------------|-----------------7--------------||
E |-3-------------------------3----|-5-----------------------5------|| 2x

G |--------------------------------|--------------------------------|
D |--------------------------------|--------------------------------|
A |-----------------5--------------|-----------------2--------------|
E |-3-------------------------3----|-5------------------------------|

G |--------------------------------|---------7---------------9------||
D |--------------------------------|-----7---------------9----------||
A |-----------------4--------------|-5---------------7--------------||
E |-2---------------------------2--|--------------------------------|| 2x

G |--------------------------------|--------------------------------|
D |--------------------------------|-----------------6--------------|
A |-----------------------------2--|-4---------------------------2--|
E |-2------------------------------|--------------------------------|

G |--------------------------------|--------------------------------|
D |--------------------------------|--------------------------------|
A |-0---------------7--------------|-----------------7--------------|
E |-----------------------------4--|-5-------------------4---5------|

G |--------------------------------|-5------------------------------|
D |-----------------5--------------|-----------------5--------------|
A |-3------------------------------|--------------------------------|
E |--------------------------------|--------------------------------|

Order:
[00:00] Chorus 2x
[00:27] Chorus (Only play first two bars)
[00:34] Bridge
Repeat everything again

[02:04] Chorus until end
Tap to rate this tab
# A B C D E F G H I J K L M N O P Q R S T U V W X Y Z