Guitaretab - guitar tabs
Song name
# A B C D E F G H I J K L M N O P Q R S T U V W X Y Z

Smiths - Girl Afraid tab

"Girl Afraid"  The Smiths  / Johnny Marr

Comments to jlantos@mail.sas.upenn.edu (jdlantos@world.std.com @ 9/1/93)

Intro			           A.
--------------------------------------------------------------------------------
---------------------10-7---------------8---------8-----------------------------
------9------7------------7---7--------9-----9---9---9-----7-------------------
----9----------------7------9-------------9---7-------9-9---9-------------------
--7--------9--------7---------------------------------------------------------
---------7------7-8-------------------------------------------------------------

B.  Am  Bm  C  D	C. 			   D.  Gmaj (7th)  D  A (bar)
------------------------------------------------------------------------------
-------------------------------8-----8----8-----8------------------------------
------------------------------9----11----9----11-------------------------------
----------------------------10---10----10---10---------------------------------
------------------------------------------------------------------------------
------------------------------------------------------------------------------

F.
----------------------------------------*---*-----------------------------------
---------------------10--12--10--9--9--10--12---(* reverse every other time)--
---------9--9--9--9--11--13--11--9--9--11--13---------------------------------
--------11-11-11-11--------------------------------------------------------
------------------------------------------------------------------------------
------------------------------------------------------------------------------

E.   Gmaj7  C#maj7  G#m7  A  B      G.   A   D



The pattern is this:   a b 3a c(*) 3a c a b a d a b a 2d e 4f g 
			2a (repeat beginning at *)
[ Tab from: http://www.guitaretab.com/s/smiths/17667.html ]
Related for Girl Afraid tab
Advertisement will be closed in 10 seconds