Song name
# A B C D E F G H I J K L M N O P Q R S T U V W X Y Z

Smiths - Panic tab

I've never seen the electric guitar track for this song tabbed anywhere before, all I've 
seen is full chords. So, here goes. I'm not an expert guitar player by any means - so 
easy, I'm pretty sure it is okay. Feedback appreciated, visire@gmail.com - tell me if I'm good or bad!

==================================================

NOTES:

 - Standard Tuning

 - I've put two digit numbers (ten's and twelves etc)
   in brackets eg. (12) to avoid confusion between
   single digit numbers.

==================================================


INTRO

|--------------------------------------------------| x1
|--------------------------------------------------|
|--5/(12)\7----------------------------------------|
|--5/(12)\7----------------------------------------|
|--------------------------------------------------|
|--------------------------------------------------|

VERSE

|--------------------------------------------------|
|--------------------------------------------------|
|--(12)(11)9--9/(12)-(14)\9------------------------|
|--(12)(11)9--9/(12)-(14)\9------------------------|
|--------------------------------------------------|
|--------------------------------------------------|

|--------------------------------------------------|
|--------------------------------------------------|
|--/(12)\5/(12)\7----------------------------------|
|--/(12)\5/(12)\7----------------------------------|
|--------------------------------------------------|
|--------------------------------------------------|

INTERLUDE

|--------------------------------------------------|
|--------------------------------------------------|
|--(10)(10)-9--\2/4-6/7--9--\2/4-6/7---------------|
|--(10)(10)-9--\2/4-6/7--9--\2/4-6/7---------------|
|--------------------------------------------------|
|--------------------------------------------------|

[Verse is repeated throughout the rest of the song after the interlude, and that is it!]

Hope someone finds it useful,
Dan. visire@gmail.com
Tap to rate this tab
# A B C D E F G H I J K L M N O P Q R S T U V W X Y Z