Song name
# A B C D E F G H I J K L M N O P Q R S T U V W X Y Z

Smiths - Shelia Take A Bow tab

these are the verses -
-------------------------5-5-5-4------------------------------------|
-------------------------5-5-5-5------------------------------------|
-4-4----------------------------------------------------------------|
-4-4-------2--------------------------------6-6---------------------|
-2-2-4-6-----2---5--0---------------------2-4-4--2------------------|
------------------------------------5-4-5----------4----------------|

-------------5-5-5-4----------------------------------------------------|
-------------5-5-5-5----------------------------------------------------|
------------------------------------------------------------------------|
-2-----------------------------4-4--------------------------------------|
---2--5--0-------------------1-2-2-4-6----------------------------------|
-----------------------5-4-5--------------------------------------------|

chorus -
---------------------------------------------------------------------------|
---------------------------------------------------------------------------|
----------------------5---7---9--------------------------5---7---9-7-5-----|
-2-----------4-4--4---5---7---9----2------------4-4--4---5---7---9-7-5-----|
---2--5-0----4-4--4---3---5---7------2--5--0----4-4--4---3---5---7-5-3-----|
-------------2-2--2-----------------------------2-2--2---------------------|

---------------------------------------------|
---------------------------------------------|
-5----7----9---------------------------------|
-5----7----9---------------------------------|
-3----5----7---------------------------------|
---------------------------------------------|

listen to the song for the arrangement


posted by yaniv kalderon from israel
Tap to rate this tab
# A B C D E F G H I J K L M N O P Q R S T U V W X Y Z