Song name
# A B C D E F G H I J K L M N O P Q R S T U V W X Y Z

Smiths - Still Ill tab

Hey (:
This is my first tab so yeah probably not great, i'm only 12.
But i've tried this one cause i couldn't find any decent complete ones and i really like the song!

Capo second fret!!!!
All notes are in relation to the capo!

Intro
e:-------x-x-x-x-x-x-|
b:-------x-x-x-x-x-x-|
g:-------x-x-x-x-x-x-|
d:-------x-x-x-x-x-x-|
a:-------x-x-x-x-x-x-|
E:-------x-x-x-x-x-x-|

(Listen to the song for the rhythm)

Verse's
e:-----5-------------------------------------------------|  (Repeat 3 times)
b:---3----3-3---5---5---5---------7---9------------------|
g:-4----4-----4---6---6---6---6/7---9--------------------|
d:-------------------------------------------------------|
a:-------------------------------------------------------|
E:-------------------------------------------------------|

Then on the 4th time

e:-----5-------------------------------------------------|
b:---3----3-3---5---5---5---------7----------------------|
g:-4----4-----4---6---6---6---6/7---7---7----------------|
d:------------------------------------5------------------|
a:-------------------------------------------------------|
E:-------------------------------------------------------|

Chorus type thing (Remember capo 2nd!)
e:-------------------------------------------------------|  (Play this twice)
b:-----2-------3-----------------------------------------|
g:---2---2-------2-----2-2-------2-2---------------------|
d:-4-------4-0-----0-----------------0-------------------|
a:-----------------------------0-------------------------|
E:-------------------0-----0h3---------------------------|

verse again
e:-----5-------------------------------------------------|  (Repeat 3 times)
b:---3----3-3---5---5---5---------7---9------------------|
g:-4----4-----4---6---6---6---6/7---9--------------------|
d:-------------------------------------------------------|
a:-------------------------------------------------------|
E:-------------------------------------------------------|


e:-----5-------------------------------------------------|
b:---3----3-3---5---5---5---------7----------------------|
g:-4----4-----4---6---6---6---6/7---7---7----------------|
d:------------------------------------5------------------|
a:-------------------------------------------------------|
E:-------------------------------------------------------|

Chorus
e:-------------------------------------------------------|  (Play this twice)
b:-----2-------3-----------------------------------------|
g:---2---2-------2-----2-2-------2-2---------------------|
d:-4-------4-0-----0-----------------0-------------------|
a:-----------------------------0-------------------------|
E:-------------------0-----0h3---------------------------|

(The bridge part after the second chorus, not so sure on this)
e:---3-----5------7---7---7---7---7----------------------|
b:----2------3----5---5---5---5---5----------------------|
g:-2-----4------6---6---6---6---6------------------------|
d:-3-----5------7---7---7---7---7------------------------|
a:-------------------------------------------------------|
E:-------------------------------------------------------|


e:-------------------------------------------------------|
b:-----2-------3-----------------------------------------|
g:---2---2-------2-----2-2-------2-2---------------------|
d:-4-------4-0-----0-----------------0-------------------|
a:-----------------------------0-------------------------|
E:-------------------0-----0h3---------------------------|


e:---3-----5------7---7---7---7---7----------------------|
b:----2------3----5---5---5---5---5----------------------|
g:-2-----4------6---6---6---6---6------------------------|
d:-3-----5------7---7---7---7---7------------------------|
a:-------------------------------------------------------|
E:-------------------------------------------------------|

e:-------------------------------------------------------|
b:-----2-------3-----------------------------------------|
g:---2---2-------2-----2-2-------2-2---------------------|
d:-4-------4-0-----0-----------------0-------------------|
a:-----------------------------0-------------------------|
E:-------------------0-----0h3---------------------------|

Back to verse

e:-----5-------------------------------------------------|  (Repeat 3 times)
b:---3----3-3---5---5---5---------7---9------------------|
g:-4----4-----4---6---6---6---6/7---9--------------------|
d:-------------------------------------------------------|
a:-------------------------------------------------------|
E:-------------------------------------------------------|

e:-----5-------------------------------------------------|
b:---3----3-3---5---5---5---------7----------------------|
g:-4----4-----4---6---6---6---6/7---7---7----------------|
d:------------------------------------5------------------|
a:-------------------------------------------------------|
E:-------------------------------------------------------|

Chorus
e:-------------------------------------------------------|  (Play this twice)
b:-----2-------3-----------------------------------------|
g:---2---2-------2-----2-2-------2-2---------------------|
d:-4-------4-0-----0-----------------0-------------------|
a:-----------------------------0-------------------------|
E:-------------------0-----0h3---------------------------|


Back to verse

e:-----5-------------------------------------------------|  (Repeat 3 times)
b:---3----3-3---5---5---5---------7---9------------------|
g:-4----4-----4---6---6---6---6/7---9--------------------|
d:-------------------------------------------------------|
a:-------------------------------------------------------|
E:-------------------------------------------------------|

e:-----5-------------------------------------------------|
b:---3----3-3---5---5---5---------7----------------------|
g:-4----4-----4---6---6---6---6/7---7---7----------------|
d:------------------------------------5------------------|
a:-------------------------------------------------------|
E:-------------------------------------------------------|

Chorus
e:-------------------------------------------------------|  (Play this twice)
b:-----2-------3-----------------------------------------|
g:---2---2-------2-----2-2-------2-2---------------------|
d:-4-------4-0-----0-----------------0-------------------|
a:-----------------------------0-------------------------|
E:-------------------0-----0h3---------------------------|


(The bridge part after the second chorus, not so sure on this)
e:---3-----5------7---7---7---7---7----------------------|
b:----2------3----5---5---5---5---5----------------------|
g:-2-----4------6---6---6---6---6------------------------|
d:-3-----5------7---7---7---7---7------------------------|
a:-------------------------------------------------------|
E:-------------------------------------------------------|


e:-------------------------------------------------------|
b:-----2-------3-----------------------------------------|
g:---2---2-------2-----2-2-------2-2---------------------|
d:-4-------4-0-----0-----------------0-------------------|
a:-----------------------------0-------------------------|
E:-------------------0-----0h3---------------------------|


e:---3-----5------7---7---7---7---7----------------------|
b:----2------3----5---5---5---5---5----------------------|
g:-2-----4------6---6---6---6---6------------------------|
d:-3-----5------7---7---7---7---7------------------------|
a:-------------------------------------------------------|
E:-------------------------------------------------------|

e:-------------------------------------------------------|
b:-----2-------3-----------------------------------------|
g:---2---2-------2-----2-2-------2-2---------------------|
d:-4-------4-0-----0-----------------0-------------------|
a:-----------------------------0-------------------------|
E:-------------------0-----0h3---------------------------|
Outro
e:-------x-x-x-x-x-x--5-5-|
b:-------x-x-x-x-x-x--3-3-|
g:-------x-x-x-x-x-x--4-4-|
d:-------x-x-x-x-x-x--5-5-|
a:-------x-x-x-x-x-x------|
E:-------x-x-x-x-x-x------|

(The last two notes are probably wrong)
Tap to rate this tab
# A B C D E F G H I J K L M N O P Q R S T U V W X Y Z