Song name
# A B C D E F G H I J K L M N O P Q R S T U V W X Y Z

Smiths - Suffer Little Children tab

January 22, 2007

Capo on 2nd fret

p: pull off
s: slide
f: fingerpick

|---------------------------------|
|---------------------0-----------|
|-----0---------0-----------------|
|---2-------4p0-----2-------4---0-|
|-3-------2-------3-------2---2---|
|-------3---------------3---------|

|-------------------------------0-|
|---------------------1-----0-----|
|-----0-----------------------2---|
|---2-------4---0---2-----2---0---|
|-3-------2---2---0-----3---------|
|-------3-------------------------|

|-----------0----------------------|
|---1-0-------0--------0-------1-0-|
|---------2-----2------------------|
|-------0------------4-----3-------|
|-0---------------(2)----3---3-----|
|----------------------------------|
              f
|-------------------------------0-|
|-----------1-0-------1s3---3-----|
|-----0---------------2s4---------|
|-0-2-----0---------2-----4---4---|
|-------------0-2-3---------------|
|-------3-------------------------|

I think that's the whole song excluding minor variations.

"The Smiths were the best looking band"
                            -Saif Mehdi
SeattleSaif@yahoo.com
Tap to rate this tab
 
# A B C D E F G H I J K L M N O P Q R S T U V W X Y Z