Song name
# A B C D E F G H I J K L M N O P Q R S T U V W X Y Z

Smiths - This Night Has Opened My Eyes tab

This night has opened my eyes

Verse
G |--------------------------------|--------------------------------|
D |---------4---5------------------|---------4^5^4------------------|
A |-----2--------------------------|-----2--------------------------|
E |-2---------------2--------------|-2---------------2--------------|

G |--------------------------------|--------------------------------|
D |--------------------------------|--------------------------------|
A |-0-------0---2---5-------0---5--|-------------2---0--------------|
E |-----3--------------------------|-2---3----------------------(2)-| 

Play Last Only 2nd Time

Chorus
G |------------/4-------7-------4--|------------/4-------7-------4--|
D |-2------------------------------|-2------------------------------|
A |--------------------------------|--------------------------------|
E |--------------------------------|--------------------------------|

G |--------------------------------|--------------------------------|
D |------------/4-------7-------4--|--------------------------------|
A |-2------------------------------|-0~~~--------------------5---4--|
E |--------------------------------|--------------------------------|

Post Chorus
G |--------------------------------|--------------------------------|
D |--------------------------------|--------------------------------|
A |(0)------0---2---5-------0---5--|-----0---0----------------------|
E |-----3--------------------------|(3)--------------3-------3---0--|

G |------------/4-------7---4------|--------------------------------|
D |-2------------------------------|--------------------------------|
A |--------------------------------|-------------------------5---4--|
E |-----------------------------0--|-3-------2---5------------------|

End Chorus
G |------------/4-------7---4-----|---------------------------------|
D |-2------------------------------|---------5----------------------|
A |--------------------------------|-------------2---5---0~~~-------|
E |--------------------------------|-3---3--------------------------|
Tap to rate this tab
 
# A B C D E F G H I J K L M N O P Q R S T U V W X Y Z