Song name
# A B C D E F G H I J K L M N O P Q R S T U V W X Y Z

Smiths - Hand In Glove tab

The Smiths- Hand in Glove
--------------------------

Intro to "Hand in Glove" from Louder Than Bombs

tabbed by: HeartandSoul
email: gorman@epix.net

4/4

capo at the 3rd fret, one higher than the usual Smiths song

|-------0------------|-----0-------------|---0------0-----|-----0------------|
|-1p0---0--1p0-------|---------0-----1p0-|---0--------4p0-|---------0----1p0-|
|-----2---------2p0--|---2---2-----2-----|-2-----2s4------|---2---2---2------|
|--------------------|-0-----------------|----------------|-0----------------|
|--------------------|-------------------|----------------|------------------|
|--------------------|-------------------|----------------|------------------|

|---0-----------|------0----------|----0------0-------|-----0----------|
|---0--1p0------|----------0---1p0|-0--0--1s3---------|---------0----1-|
|-2---------2p0-|---2----2---2----|-2-----2s4---4p2p0-|---2---2---2--2-|
|---------------|-0---------------|-------------------|-0--------------|
|---------------|-----------------|-------------------|----------------|
|---------------|-----------------|-------------------|----------------|

|-----0---------|-----0-----------|----0-------0--------|
|-0-----1p0-----|---------0----1p0|-0--0--1s3-----------|
|---2-------2p0-|---2---2---2-----|-2-----2s4----4p2p0--|
|---------------|-0---------------|---------------------|
|---------------|-----------------|---------------------|
|---------------|-----------------|---------------------|




Tap to rate this tab
 
# A B C D E F G H I J K L M N O P Q R S T U V W X Y Z