Guitaretab - guitar tabs
Song name
# A B C D E F G H I J K L M N O P Q R S T U V W X Y Z

Smiths - Draize Train tab

-------------------------------------------------------------------------------
			   The Draize Train - Smiths
-------------------------------------------------------------------------------
Tabbed by: David K.
Email: thischarmingman13@gmail.com

Tuning: Standard

This is all I have so far, so if somebody wants to collaborate on figuring out the whole 
send me an email.

e|---3---3----.--3-2--0-----3--3--0--3--2------------------------------------|
B|---3---3----.--3-3--0-----3--3--0--3--3------------------------------------|
G|-0---0------.--2-2--0-----0--0--0--2--2------------------------------------|
D|-2---2----2-.--0-0--2-----2--2--2--0--0------------4-5---4-.-5-5-5---------|
A|-3---3----0-.-------2-----3--3--3------------------------------------------|
E|--------------------0------------------------------------------------------|
[ Tab from: http://www.guitaretab.com/s/smiths/188083.html ]
(0:29)
e|-3---------------------3----------------------3------------------------------|
B|-7^8-8-8-8-7\5-3-3-3---7^8-8-8-8-7h8-8-8-8----7^8-8-8-8-7\5-3-3-3------------|
G|-----------------------------------------------------------------------------|
D|-----------------------------------------------------------------------------|
A|-----------------------------------------------------------------------------|
E|-----------------------------------------------------------------------------|
(0:47)                                                (1:31) strum
e|-7-----10---------------------------------------------7----------------------|
B|-10^12----10p8-7--7h8p7\5h7p7\3h5-5-5-5-5-------------8----------------------|
G|------------------------------------------------------9----------------------|
D|------------------------------------------------------7----------------------|
A|-----------------------------------------------------------------------------|
E|-----------------------------------------------------------------------------|

| ^  bend up
| /  slide up
| \  slide down
| h  hammer-on
| p  pull-off
| ~  vibrato
| +  harmonic
| .  Mute note
===============================================================================
Related for Draize Train tab
Advertisement will be closed in 10 seconds