Song name
# A B C D E F G H I J K L M N O P Q R S T U V W X Y Z

Smiths - There Is A Light That Never Goes Out tab

capo on 4th fret
VERSE
   Am7  A7sus2 Am7   A7sus2      F         Fmaj+11 C     G
e|-3--3-0-0----3-3-3-0----0-0-0--1-----1-1-0-------0-0-0-3---3-3-3-------------|
B|-1--1-0-0----1-1-1-0----0-0-0--1-----1-1-0-------1-1-1-0---0-0-0-------------|
G|-0--0-0-0----0-0-0-0----0-0-0--2-----2-2-2-------0-0-0-0---0-0-0-------------|
D|-2--2-2-2----2-2-2-2----2-2-2--3-----3-3-3-------2-2-2-0---0-0-0-------------|
A|-0--0-0-0----0-0-0-0----0-0-0--3-----3-3-3-------3-3-3-2---2-2-2-------------|
E|-------------------------------1-----1-1-1-------------3---3-3-3-------------|

CHORUS
   C                A                 F
e|-------3---0------------0-----------------1-----------0---1------------------|
B|---1-----------1----1-------1---------1-------1---------------1--------------|
G|-----0----------------2---------2-------2---------2---------------2----------|
D|-2----------------2-----------------3---------------------------------3------|
A|-3----------------0-----------------3----------------------------------------|
E|------------------------------------1----------------------------------------|

   G                C                 F              D6sus4/G
e|--------------------3--0-------------------1---0-----------------------------|
B|-------3---0---------------1-----------------------3-------------------------|
G|---0-----------0--0-------------------2------------0-------------------------|
D|-0---0------------2-------------0-2-3---3----------0-------------------------|
A|-2----------------3--------------------------------2-------------------------|
E|-3-------------------------------------------------3-------------------------|

OUTRO
   Am                                 Fmaj+11             C       G
e|----0-----0-----------------------------0-------0-------0--------------------|
B|-1--------------0-1--1--0-----------------------------0-1---1---3---0--------|
G|-2-----2------2------------2---0----2-------2-------2---0-------0-------0----|
D|-2----------------------------------3-------------------2-------0------------|
A|-0----------------------------------3-------------------3-------2------------|
E|------------------------------------1---------------------------3------------|
Tap to rate this tab
 
# A B C D E F G H I J K L M N O P Q R S T U V W X Y Z