Smiths - Wonderful Woman tab

Band: The Smiths
Song: Wonderful Woman
Album: B-Side of This Charming Man / Troy Tate
Tuning: Standard

Verse:

   y
e|---|----------------|---------------|-4-------------------------|
B|---|-------------4--|-------5-4-----|---4-----------------------|
G|---|-----------4----|-----6-----6---|-----4-6-4-3-4-4-6-3-4-3---|
D|---|-----6----------|---6---------6-|-------------------------6-|  2x
A|---|---6---6--------|-4-------------|---------------------------|
E|-2-|-4--------------|---------------|---------------------------|

y= Just for the Intro


Pre-Chorus:


e|--------------4--6----|-4------------------------|
B|-----4-7-5-7--------7-|--4-----------------------|
G|---4------------------|---4-6-4-3-4-4-6-3-4-3----|
D|-6--------------------|-----------------------6--|
A|----------------------|--------------------------|
E|----------------------|--------------------------|


e|--------------4--6-|------------------/6-----------|
B|-----4-7-5-7-------|-----5---4---5-------7-4-5-7-4-|
G|---4---------------|-4-4---4---4---4---------------|
D|-6-----------------|-------------------------------|
A|-------------------|-------------------------------|
E|-------------------|-------------------------------|


Chorus:

                         z
e|---------4----4--4-----4^--|---------------------------|
B|-------4--4-------4----5|--|---------7-----------7-----|
G|-----4-----4-------4---6|--|-----9-----9-----9-----9---|
D|---6-------------------6|--|---9---9----9--9---9-----9-|
A|-----------------------4|--|-7-------------------------|
E|-4-------------------------|---------------------------|


z = I've heard 3 or 4 different Versions of this song, and everytime Johnny is playing 
it different. This isn't 100% right, but it fix the gap very well.


Well the other Verse are nearly the same. Just one or two notes are different. But I 
think this is ok.


Hope you like it

Thank you for reading it.

For any questions please write me.

Please Rate it.

Thank you!
Tap to rate this tab
 
# A B C D E F G H I J K L M N O P Q R S T U V W X Y Z