Song name
# A B C D E F G H I J K L M N O P Q R S T U V W X Y Z

Smiths - The Boy With The Thorn tab

These are tabs and chords of this wonderful song by the Smiths :)

There are 3 mini riff. At the beginning of the song, they're played together, but in the 
rest of the song i will write the riff and the number to make you understand the right 
place ;)



Riff 1                                          Riff 2

-------------|-------------|-----5--------5-----|-7-7-7-888--|
-8-8-8-7-5-7-|-8-8-8-7-5-7-|-8-8---5--8-8---5-7-|------------|
-------------|-------------|--------------------|------------|
-------------|-------------|--------------------|------------|
-------------|-------------|--------------------|------------|
-------------|-------------|--------------------|------------|


Riff 3

-55-55---7-5--------7-7-7-8-5-5-|
------------8-------------------|
-------------7-9-9--------------|
--------------------------------|
--------------------------------|
--------------------------------|
Listen the song to figure it out (it's quite simple) Attention when you play (Riff 2 + 
Riff 3) because it's all connected and fast!


Intro:

(Riff 1) + (Riff 2)

(Riff 3)
The boy with the thorn in his side

Behind the hatred there lies

(Riff 2)    +     (Riff 3)
A murderous desire for love


             G       Am    D
How can they look into my eyes
               Am7               C    D
And still they don't believe me ?
       G            Am           D
How can they hear me say those words
                Am7         C    D
Still they don't believe me ?
                  G        Am  D
And if they don't believe me now
           Am7            C   D
Will they ever believe me ?
                  G        Am   D
And if they don't believe me now
                          Am7    C     D
Will they ever, they ever, believe me ?
Oh ...
(Riff 1) + (Riff 2)
Oh......Oh..........

(Riff 3)
The boy with the thorn in his side

Behind the hatred there lies

(Riff 2)  +   (Riff 3)
A plundering desire for love
              G              Am    D
How can they see the Love in our eyes
                      Am7         C    D
And still they don't believe us ?
                    G      Am     D
And after all this time
                    Am7        C   D
They don't want to believe us
                   G       Am  D
And if they don't believe us now
            Am7          C  D
Will they ever believe us ?
                      G
And when you want to Live
                  Am  D
How do you start ?

Where do you go ?
Am7                      C  D
Who do you need to know ?


Outro:

(Riff 1) +  G   (000787)


Sorry if you don't understand, but it's hard to write this tab, easy to play but hard to 
make understand how to play ;) hugs! :)
Tap to rate this tab
 
# A B C D E F G H I J K L M N O P Q R S T U V W X Y Z