Song name
# A B C D E F G H I J K L M N O P Q R S T U V W X Y Z

Smiths - Still Ill tab

Still Ill (The Smiths):


Intro:


e:-------x-x-x-x-x-x-|
b:-------x-x-x-x-x-x-|
g:-------x-x-x-x-x-x-|
d:-------x-x-x-x-x-x-|
a:-------x-x-x-x-x-x-|
E:-------x-x-x-x-x-x-|



e:--------|   Johnny plays this mini-riff on the album Rank, before...
b:---5--7-|
g:-6------|
d:--------|
a:--------|
E:--------|

...this! (main riff):



e:-----7----------------------------------7------9------|
b:---5------5-5---7-5-----7---7----- 5---------7--------|
g:-6----6-------6------8-8---8--8------6-----8----------|
d:------------------------------------------------------|
a:------------------------------------------------------|
E:------------------------------------------------------|


e:-----7----------------------------------7-------------|
b:---5------5-5---7-5------7----7----5----------7-------|
g:-6----6-------6-------8-8---8--8-----6----------8-----|
d:-------------------------------------------9----------|
a:------------------------------------------------------|
E:------------------------------------------------------|



Bridge: (i listened this just with my ears and try to find tabs, so it's to prove)


e:----------------------------------------------------|   ("4-4-4" is fast)
b:-----5-----------5-4--------------------------------|
g:-4-4---4---4-4-4-----4-------4-4---------4-4--------|
d:------------------------2-4-------2-4-6-------------|
a:----------------------------------------------------|
E:----------------------------------------------------|






Chorus: (this is HOW I PLAY, in my personal way...don't know if you find it right, just 
give a try :D ) (Attention to the rhythm)


e:--44--5--4--444-555--777---7777-5-4-5------------------|
b:--55--x--5--555-xxx--xxx-------------------------------|
g:--44--4--4--444-444--666-------------------------------|
d:-------------------------------------------------------|
a:-------------------------------------------------------|
E:-------------------------------------------------------|




e:-------------------------------------------------------|  the bridge again)
b:-----5-----------5-4-----------------------------------|
g:-4-4---4---4-4-4-----4-------4-4---------4-4-----------|
d:------------------------2-4-------2-4-6----------------|
a:-------------------------------------------------------|
E:-------------------------------------------------------|



And again with the main riff :)

It'm my first tablature, it' s one of my favoutite songs and i tried to make it right :) 
sorry fot bad english, i'm italian :)
Tap to rate this tab
 
# A B C D E F G H I J K L M N O P Q R S T U V W X Y Z