Song name
# A B C D E F G H I J K L M N O P Q R S T U V W X Y Z

Smiths - This Charming Man tab

“This Charming Man”, By The Smiths Tabbed by Bethelboiii

Notes:
Other tabs were getting close, but none got the end of the chorus right.
This is based on how Marr plays the song LIVE! The actual recording is like a step down 
from this or sumffin…
Capo 2nd
Tabs are relevant to NUT! Not second fret…




INTRO
E --9--9--7-7--10--9---7--7-sl-9-------12-12-------9---------------|
B -10-10--9-9--12--10--9--9-sl-10--10------------9----12-----------|
G  ------------------------------11------------9-------------------|
D  ----------------------------------------------------------------|
A  ----------------------------------------------------------------|
E  ----------------------------------------------------------------|

E --------------9--------------------------------------------------|
B --------10------------10-12-------10-----10/12-12-10-9-----------|
G --11-11----11---11-11------11--11----11--11/13-13-11-9-----------|
D -----------------------------------------------------------------|
A -----------------------------------------------------------------|
E -----------------------------------------------------------------|

E 7-sl--9--9--9-7-7--10--9---7--7-sl-9-------12-12-12--------------|
B 9-sl-10-10-10-9-9--12--10--9--9-sl-10--10------------------------|
G -------------------------------------11--------------------------|
D -----------------------------------------------------------------|
A -----------------------------------------------------------------|
E -----------------------------------------------------------------|
VERSE 1
E --------------9--------------------------------------------------|
B --------10------------10-12-------10-----10/12-12-10-9-----------|
G --11-11----11---11-11------11--11----11--11/13-13-11-9-----------|
D -----------------------------------------------------------------|
A -----------------------------------------------------------------|
E -----------------------------------------------------------------|

E -----------------------------------------------------------------|
B ----------5------5-5----7--5-----------5----9-9----7--9----------|
G -5-sl-6------0-6-----6-------5-sl-6------0--9-9--9---------------|
D -----------------------------------------------------------------|
A -----------------------------------------------------------------|
E -----------------------------------------------------------------|

E --------------9--------------------------------------------------|
B --------10------------10-12-------10-----10/12-12-10-9-----------|
G --11-11----11---11-11------11--11----11--11/13-13-11-9-----------|
D -----------------------------------------------------------------|
A -----------------------------------------------------------------|
E -----------------------------------------------------------------|

E -----------------------------------------------------------------|
B ----------5------5-5----7--5-----------5----9-9----7--9----------|
G -5-sl-6------0-6-----6-------5-sl-6------0--9-9--9---------------|
D -----------------------------------------------------------------|
A -----------------------------------------------------------------|
E -----------------------------------------------------------------|

E --------------9--------------------------------------------------|
B --------10------------10-12-------10-----10/12-12-10-9-----------|
G --11-11----11---11-11------11--11----11--11/13-13-11-9-----------|
D -----------------------------------------------------------------|
A -----------------------------------------------------------------|
E -----------------------------------------------------------------|

E -----------------------------------------------------------------|
B ----------5------5-5----7--5-----------5----9-9----7--9----------|
G -5-sl-6------0-6-----6-------5-sl-6------0--9-9--9---------------|
D -----------------------------------------------------------------|
A -----------------------------------------------------------------|
E -----------------------------------------------------------------|

E --------------9--------------------------------------------------|
B --------10------------10-12-------10-----10/12-12-10-9-----------|
G --11-11----11---11-11------11--11----11--11/13-13-11-9-----------|
D -----------------------------------------------------------------|
A -----------------------------------------------------------------|
E -----------------------------------------------------------------|

E -----------------------------------------------------------------|
B ----------5------5-5----7--5-----------5----9-9----7--9----------|
G -5-sl-6------0-6-----6-------5-sl-6------0--9-9--9---------------|
D -----------------------------------------------------------------|
A -----------------------------------------------------------------|
E -----------------------------------------------------------------|

E --------------9--------------------------------------------------|
B --------10------------10-12-------10-----10/12-12-10-9-----------|
G --11-11----11---11-11------11--11----11--11/13-13-11-9-----------|
D -----------------------------------------------------------------|
A -----------------------------------------------------------------|
E -----------------------------------------------------------------|

E -----------------------------------------------------------------|
B ----------5------5-5----7--5-----------5----9-9----7--9----------|
G -5-sl-6------0-6-----6-------5-sl-6------0--9-9--9---------------|
D -----------------------------------------------------------------|
A -----------------------------------------------------------------|
E -----------------------------------------------------------------|

E --------------9--------------------------------------------------|
B --------10------------10-12-------10-----10/12-12-10-9-----------|
G --11-11----11---11-11------11--11----11--11/13-13-11-9-----------|
D -----------------------------------------------------------------|
A -----------------------------------------------------------------|
E -----------------------------------------------------------------|

E -----------------------------9---------9------------12--------14-|
B -------10---------9-------10---10--------10-------10--------10---|
G ----11----11----9---9--11------------11--------11---------11-----|
D -12----------11--------------------9--------12----------9--------|
A -----------------------------------------------------------------|
E -----------------------------------------------------------------|
CHORUS 1
E --x--x--x--x--x--x--x----x--x-|
B --10-10-9--9--x--10-10---7--9-|
G --9--9--9--9--x--9--9----6--8-|
D --11-11-9--9--x--11-11---7--9-|
A --9--9--9--9--x--9--9----5--7-|
E --x--x--x--x--x--x--x----x--x-|

E -----------------------------9---------9------------12--------14-|
B -------10---------9-------10---10--------10-------10--------10---|
G ----11----11----9---9--11------------11--------11---------11-----|
D -12----------11--------------------9--------12----------9--------|
A -----------------------------------------------------------------|
E -----------------------------------------------------------------|

E --x--x--x--x--x--x--x----x--x----x--x--x--x--x--x--x-------------|
B --10-10-9--9--x--10-10---7--9----10-10-9--9--x--10-10------------|
G --9--9--9--9--x--9--9----6--8----9--9--9--9--x--9--9-------------|
D --11-11-9--9--x--11-11---7--9----11-11-9--9--x--11-11------------|
A --9--9--9--9--x--9--9----5--7----9--9--9--9--x--9--9-------------|
E --x--x--x--x--x--x--x----x--x----x--x--x--x--x--x--x-------------|
VERSE 2
E -----------------------------------------------------------------|
B ----------5------5-5----7--5-----------5----9-9----7--9----------|
G -5-sl-6------0-6-----6-------5-sl-6------0--9-9--9---------------|
D -----------------------------------------------------------------|
A -----------------------------------------------------------------|
E -----------------------------------------------------------------|

E --------------9--------------------------------------------------|
B --------10------------10-12-------10-----10/12-12-10-9-----------|
G --11-11----11---11-11------11--11----11--11/13-13-11-9-----------|
D -----------------------------------------------------------------|
A -----------------------------------------------------------------|
E -----------------------------------------------------------------|

E -----------------------------------------------------------------|
B ----------5------5-5----7--5-----------5----9-9----7--9----------|
G -5-sl-6------0-6-----6-------5-sl-6------0--9-9--9---------------|
D -----------------------------------------------------------------|
A -----------------------------------------------------------------|
E -----------------------------------------------------------------|

E --------------9--------------------------------------------------|
B --------10------------10-12-------10-----10/12-12-10-9-----------|
G --11-11----11---11-11------11--11----11--11/13-13-11-9-----------|
D -----------------------------------------------------------------|
A -----------------------------------------------------------------|
E -----------------------------------------------------------------|

E -----------------------------------------------------------------|
B ----------5------5-5----7--5-----------5----9-9----7--9----------|
G -5-sl-6------0-6-----6-------5-sl-6------0--9-9--9---------------|
D -----------------------------------------------------------------|
A -----------------------------------------------------------------|
E -----------------------------------------------------------------|

E --------------9--------------------------------------------------|
B --------10------------10-12-------10-----10/12-12-10-9-----------|
G --11-11----11---11-11------11--11----11--11/13-13-11-9-----------|
D -----------------------------------------------------------------|
A -----------------------------------------------------------------|
E -----------------------------------------------------------------|

E -----------------------------------------------------------------|
B ----------5------5-5----7--5-----------5----9-9----7--9----------|
G -5-sl-6------0-6-----6-------5-sl-6------0--9-9--9---------------|
D -----------------------------------------------------------------|
A -----------------------------------------------------------------|
E -----------------------------------------------------------------|

E --------------9--------------------------------------------------|
B --------10------------10-12-------10-----10/12-12-10-9-----------|
G --11-11----11---11-11------11--11----11--11/13-13-11-9-----------|
D -----------------------------------------------------------------|
A -----------------------------------------------------------------|
E -----------------------------------------------------------------|

E -----------------------------9---------9------------12--------14-|
B -------10---------9-------10---10--------10-------10--------10---|
G ----11----11----9---9--11------------11--------11---------11-----|
D -12----------11--------------------9--------12----------9--------|
A -----------------------------------------------------------------|
E -----------------------------------------------------------------|
CHORUS 2
E --x--x--x--x--x--x--x----x--x-|
B --10-10-9--9--x--10-10---7--9-|
G --9--9--9--9--x--9--9----6--8-|
D --11-11-9--9--x--11-11---7--9-|
A --9--9--9--9--x--9--9----5--7-|
E --x--x--x--x--x--x--x----x--x-|

E -----------------------------9---------9------------12--------14-|
B -------10---------9-------10---10--------10-------10--------10---|
G ----11----11----9---9--11------------11--------11---------11-----|
D -12----------11--------------------9--------12----------9--------|
A -----------------------------------------------------------------|
E -----------------------------------------------------------------|

E --x--x--x--x--x--x--x----x--x-|
B --10-10-9--9--x--10-10---7--9-|
G --9--9--9--9--x--9--9----6--8-|
D --11-11-9--9--x--11-11---7--9-|
A --9--9--9--9--x--9--9----5--7-|
E --x--x--x--x--x--x--x----x--x-|






E -----------------------------9---------9------------12--------14-|
B -------10---------9-------10---10--------10-------10--------10---|
G ----11----11----9---9--11------------11--------11---------11-----|
D -12----------11--------------------9--------12----------9--------|
A -----------------------------------------------------------------|
E -----------------------------------------------------------------|

E --x--x--x--x--x--x--x----x--x-|
B --10-10-9--9--x--10-10---7--9-|
G --9--9--9--9--x--9--9----6--8-|
D --11-11-9--9--x--11-11---7--9-|
A --9--9--9--9--x--9--9----5--7-|
E --x--x--x--x--x--x--x----x--x-|
OUTRO
E -----------------------------9---------9------------12--------14-|
B -------10---------9-------10---10--------10-------10--------10---|
G ----11----11----9---9--11------------11--------11---------11-----|
D -12----------11--------------------9--------12----------9--------|
A -----------------------------------------------------------------|
E -----------------------------------------------------------------|

E --x--x--x--x--x--x--x----x--x----x--x--x--x--x--x--x-------------|
B --10-10-9--9--x--10-10---7--9----10-10-9--9--x--10-10------------|
G --9--9--9--9--x--9--9----6--8----9--9--9--9--x--9--9-------------|
D --11-11-9--9--x--11-11---7--9----11-11-9--9--x--11-11------------|
A --9--9--9--9--x--9--9----5--7----9--9--9--9--x--9--9-------------|
E --x--x--x--x--x--x--x----x--x----x--x--x--x--x--x--x-------------|
Tap to rate this tab
 
# A B C D E F G H I J K L M N O P Q R S T U V W X Y Z