Song name
# A B C D E F G H I J K L M N O P Q R S T U V W X Y Z

Smiths - Well I Wonder tab

watch 'well i wonder guitar cover' by davidguitarist91 on youtube for timing & 
struming patterns etcs

capo on second!!

intro:
e|---------------3---|
B|--1---2-----1--1---|
G|--2---3-----2--2---|
D|--2---3-----2--3---|
A|-------------------|
E|-------------------|
verse:
e|--1/0----------------------------------------|
B|--3/1-----3/0-------1/0-----1/0----3/1/3-----|
G|--------------------2/0-----2/2----4/2/4-----|
D|--2/2-----2/2-------2/2-----3/3----5/3/5-----|
A|--3/3-----2/2---------------3/3----5/3/5-----|
E|---------------------------------------------|
chorus:  (high pitched "well i wonder, please keep me in mind")
e|--1/0---------------------|
B|--3/3----1/0-----3/1/3----|
G|--2/2----2/2-----4/2/4----|  repeat x2, back to intro
D|---------3/3-----5/3/5----|
A|---------3/3-----5/3/5----|
E|--------------------------|

on the second chorus this is played
e|---------5----0---------|
B|-------6-------6--------|
G|-----7------7----7-5----|
D|------------------------|
A|------------------------|
E|------------------------|

instrumental part at end:

( not 100% sure of the picking pattern but the notes are pretty much right)
e|---------------------------------0-------0-------------|
B|------8----8-----------------0-------3-----------------|
G|----9-----9-------8--------0---0-------0---------------|
D|--7-----7-----7h9------------------5-------------------|
A|-------------------------------------------------------|
E|-------------------------------------------------------|

e|--------------------------------0------3------------------|
B|-------8----------------------3------1--------------------|
G|---------------9------------0------2--------2-------------|
D|----7--------7-----7----------------------3---------------|
A|--8--------8-----8----------------------------------------|
E|----------------------------------------------------------|
Tap to rate this tab
# A B C D E F G H I J K L M N O P Q R S T U V W X Y Z