Song name
# A B C D E F G H I J K L M N O P Q R S T U V W X Y Z

Smiths - Jeane tab

Band/Artist: The Smiths
Song: "Jeane"
Album: This Charming Man 7"-single B-side (1984)

standard tuning w/ capo on the 2nd fret

Guitar (Marr)
INTRO/VERSE
  C              G        C              G
e-0-----0--------3--3-----0-----0--0-----3--3----||
B-1-----1--------0--0-----1-----1--1-----0--0----||
G-0-----0--------0--0-----0-----0--0-----0--0----|| x 2
D-2-----2--------0--0-----2-----2--2-----0--0----||
A-3-----3--------2--2-----3-----3--3-----2--2----||
E----------------3--3--------------------3--3----||
cont.
  Fmaj9                   G
e-------0----------------------------------------|
B----------1-----0-------------------------------|
G----0-----------------0--------0--2-----0-------|
D-3----------------------------------------------|
A----------------------------2-------------------|
E-------------------------3----------------------|

CHORUS
  Fmaj9                   C
e-------0----------------------------------------|
B----------1-----0-------------0--1-----0--------|
G----0-----------------0----0------------------0-|
D-3-----------------------2----------------------|
A------------------------------------------------|
E------------------------------------------------|
cont.
  Fmaj9                   C
e-------0-------------------------------0--------|
B----------1-----0-------------1--3--------------|
G----0-----------------0----0------------------0-|
D-3-----------------------2----------------------|
A------------------------------------------------|
E------------------------------------------------|
cont.
  Fmaj9                   C
e-------0----------------------0-----------------|
B----------1-----0----------------1-----0--------|
G----0-----------------0----0------------------0-|
D-3-----------------------2----------------------|
A------------------------------------------------|
E------------------------------------------------|
cont.
  Fmaj9                   G
e-0--0--0--0--0--0--0--0--3--3--3--3--3--3--3--3-|
B-1--1--1--1--1--1--1--1--3--3--3--3--3--3--3--3-|
G-0--0--0--0--0--0--0--0--0--0--0--0--0--0--0--0-|
D-3--3--3--3--3--3--3--3--0--0--0--0--0--0--0--0-|
A-3--3--3--3--3--3--3--3--2--2--2--2--2--2--2--2-|
E-------------------------3--3--3--3--3--3--3--3-|

BRIDGE
  Em
e----------0-------------------------------------|
B----------------------------------0-----------0-|
G-------------------0-----------------------0----|
D-------2--------0--------------2--------0-------|
A----2-----------------------2-------------------|
E-0-----------------------0----------------------|
cont.
  Em
e----------0-----------------0--------0--0-------|
B-------------------------------0----------------|
G-------------------0--------------0-----------0-|
D-------2--------0--------2----------------------|
A----2-------------------------------------------|
E-0----------------------------------------------|


That's it, those are all the guitar parts.  The exact notes
 and picking on the BRIDGE may not be exactly accurate but
 I think it's pretty damn close.  Please feel free to leave
 comments, corrections, suggestions, or requests. Cheers!

-Bennyshambles78-
Tap to rate this tab
 
# A B C D E F G H I J K L M N O P Q R S T U V W X Y Z