Song name
# A B C D E F G H I J K L M N O P Q R S T U V W X Y Z

Smiths - Nowhere Fast tab

-------------------------------------------------------------------------------
                             NOWHERE FAST - The Smiths
-------------------------------------------------------------------------------
Tabbed by: emilym80
E-mail: emilym80@hotmail.com

Tuning: F# or capo on 2nd.
From the album "Meat is Murder".
Tab relative to capo, not nut.
There are 2 guitars on this track (I think) so I tried to combine
both parts as much as possible.
The tab can be pretty much followed as is but there are some parts that 
repeat or have variations.
*denotes a slow bend of the trem arm, if you have one.
Riff
e|-----------------|
B|-----------------|
G|-----------------|
D|-3-------5-------|
A|-3-----3-5-----5-|
E|-1-3/5---3-5/7---|

I've only tabbed the chords but Johnny scuffs a lot between them,
so add that in if you want.
Verse rhythm
e|-5-5-5--5-5-5-5--5-5-5--5-5-5-5--5-5-5--55-5--8--1212-1414-12-8-8------|
B|-5-5-5--8-8-8p5--5-5-5--8-8-8p5--6-6-6--88-6--10-1212-1212-12-1010-----|
G|-5-5-5--5-5-5-5--5-5-5--5-5-5-5--5-5-5--55-5--10-1212-1212-12-1010-----|
D|-7-7-7--7-7-7-7--7-7-7--7-7-7-7--7-7-7--77-7---------------------------|
A|---------------------------------5-5-5--55-5---------------------------|
E|-----------------------------------------------------------------------|

Bridge
e|-------0-------0----------0----0---0-------------0----|
B|-3----3--1-0---1---------1-1--1-1-1-1------3----3--1-0|
G|--0------------2-2-2-2--2----2---------0----0---------|
D|---0-------------------------------------0----0-------|
A|--------------0---0-----------------------------------|
E|----------------0---0---------------------------------|
                         * *
e|---0----0----0----0----5-0-|
B|--1-1--1-1-11-1--1-1---6-1-|
G|-2--------------2------7-0-|
D|------3----------------7-2-|
A|-----------------------5-3-|
E|---------------------------|

Guitar break part 1
e|-------0-0-0-0--0-0-0-0-0-0-0-0---0-0-0-0-0-0---0---0---------|
B|---0-0-0-0-0-0--0-0-0-0-0-0-0-0---0-0-0-0-0-0-3p0-3p0-1p0-----|
G|-2/4-4-4-4-4-4--4-4-4-4-4-4-4-0-2/4-4-4-4-4-4-------------2p0-|
D|--------------------------------------------------------------|
A|--------------------------------------------------------------|
E|--------------------------------------------------------------|

Guitar break part 2
e|-------0-0-0-0--0-0-0-0-0-0-0---0-0-0-0-0-0--/3h5-3h5-3h5-0------------|
B|---0-0-0-0-0-0--0-0-0-0-0-0-0---0-0-0-0-0-0--/5---5---5---5------------|
G|-2/4-4-4-4-4-4--4-4-4-4-4-4-0-2/4-4-4-4-4-4---0---0---0---0------------|
D|-----------------------------------------------------------------------|
A|-----------------------------------------------------------------------|
E|-----------------------------------------------------------------------|
                                                                * *
e|-------0-0-0-0--0-0-0-0-0-0-0-0---0-0-0-0-0-0---0---0---------5-0--|
B|---0-0-0-0-0-0--0-0-0-0-0-0-0-0---0-0-0-0-0-0-3p0-3p0-1p0-----6-1--|
G|-2/4-4-4-4-4-4--4-4-4-4-4-4-4-0-2/4-4-4-4-4-4-------------2p0-7-0--|
D|--------------------------------------------------------------7-2--|
A|--------------------------------------------------------------5-3--|
E|-------------------------------------------------------------------|

Verse 3 rhythm (an extra overdub over the normal rhythm this verse only)
This chord is played repeatedly to the same rhythm as the other parts.
e|-14-|
B|-15-|
G|-16-|
D|-16-| 
A|-14-|
E|----|

As is this part. You can play whichever you want as they all fit.
e|-8--8--8---7-7-7-|
B|-10-10-10--8-8-8-|
G|-----------------|
D|-----------------|
A|-----------------|
E|-----------------|


************************************

| /   slide up
| \   slide down
| h   hammer-on
| p   pull-off
| ~   vibrato
| +   harmonic
| x   Mute note
| b   Bend
| pb  Pre-bend
| br  Bend release
| pbr Pre-bend release
| brb Bend release bend

************************************
Tap to rate this tab
# A B C D E F G H I J K L M N O P Q R S T U V W X Y Z