Song name
# A B C D E F G H I J K L M N O P Q R S T U V W X Y Z

Smiths - I Know Its Over tab

The Smiths - I Know Its Over

If you have a volume pedal, use it for a slow fade-in

  Cma7                          Am                     F   G
||-0-----(3)-(0)|--------------|-0--------3-0-|--0------------||
||-0------------|--------------|-1-------1----|3---3-1---1---0||
||-0------------|-----0------0-|-2------2-----|---------2---0-||
||-2------------|---2------0---|-2------------|--------3---0--||
||-3------------|-3------2-----|-0------------|---------------||
||--------------|--------------|--------------|---------------||

repeat this 1st sequence a few times, check the actual song. Throw in the (3)-(0) notes 
from the second sequence on.

Then theres this transition:
  Cma7                      Am                   Fma7  G  Fma7    G
||-0-------|--------------|-0-0-0-0-0-0--|0-0-0----0---3|---0-----3----||
||-0-------|--------------|-1-1-1-0-0-0--|3-3-3----1---3|---1-----3----||
||-0-------|-----0-----0--|-2-2-2-2-2-2--|2-2-2----2---0|---2-----0----||
||-2-------|---2-----0----|-2-2-2-2-2-2--|2-2-2----3---0|---3-----0----||
||-3-------|-3-----2------|-0-0-0-0-0-0--|0-0-0----0---2|---0-----2----||
||---------|--------------|--------------|-------------3|---------3----||



  Fma7*    G     F              G       F  G    Cma7 (back to 1st sequence)
||-0-------3----|1--0----------|---3----------|-0------------||
||-1-------3----|-1--1--1--0---|--3-3---1--0--|-0------------||
||-0-------0----|--2--2--2--2--|-0---0---2--0-|-0------------||
||-3-------0----|---------3--3-|0---------3--0|-2------------||
||-0-------2----|--------------|--------------|-3------------||
||---------3----|--------------|--------------|--------------||

After repeating the first sequence some more, use the transition again, but instead of 
going back to Cma7, go to the Chorus

Chorus
  C               F              G              F      G
||--------------|--------------|--------------|--------------||
||---------0--1-|----------0--1|------0-------|-1------0-----||
||------0-------|-------2------|-0--0---0-----|---2------0---||
||---2----------|----3---------|----------0---|-----3------0-||
||3-------------|-3------------|--------------|--------------||
||--------------|--------------|--------------|--------------||

  Am              F              G              F      G
||--------------|--------------|--------------|--------------||
||---------0--1-|----------0--1|-------0------|-1------0-----||
||------2-------|-------2------|-0---0---0----|---2------0---||
||---2----------|----3---------|-----------0--|-----3------0-||
||0-------------|-3------------|--------------|--------------||
||--------------|--------------|--------------|--------------||


Repeat the above sequence several times. Finally, throw in the great sounding Em7 chord 
into the chorus sequence,
check the actual song for when it comes up.

  Em7             F      G
||-------0-----0|-0------3-----||
||------3-----3-|-1------3-----||
||----0------0--|-2------0-----||
||--2-------2---|-3------0-----||
||2--------2----|-0------2-----||
||--------------|--------3-----||


Just keep repeating the chorus over and over, throwing in the Em7 when appropriate, to 
end the song.
Tap to rate this tab
# A B C D E F G H I J K L M N O P Q R S T U V W X Y Z