Song name
# A B C D E F G H I J K L M N O P Q R S T U V W X Y Z

Smiths - Wonderful Woman tab

-------------------------------------------------------------------------------
                             WONDERFUL WOMAN - The Smiths
-------------------------------------------------------------------------------
Tabbed by: OrangeTrousers

Tuning: Standard

The Song; http://www.youtube.com/watch?v=IsyE1M7mR7E
The tab; I have tabbed down all that I hear in the song, and nothing that I cannot hear

(Bracketed notes mean you can play them if you like; it often sounds with many of Marr's 
guitar lines that he may have put some other harmonic note in there but youre not sure)

Verse
e|---|-----------------|----------------|---4-------------|------------------|
B|---|---------4-------|------5p4-------|-----4-----------|------------------|
G|---|-------4---------|---6--------4---|-------4-6---4-3-|-4----6-3---4-3---|
D|---|-----6-----------|-6------------6-|-----------------|---6------------4-|
A|---|---6-----------4-|-----4----------|-----------------|------------------|
E|-2-|-4---------------|----------------|(4)-------(4)----|------------------|
                  In Her Head She Lay      Until She'd rise and say     I'm-

e|-----------------|----------------|---4-------------|------------------|
B|---------4-------|------5p4-------|-----4-----------|------------------|
G|-------4---------|---6--------4---|-------4-6---4-3-|-4----6-3---4-3---|
D|-----6-----------|-6------------6-|-----------------|---6------------4-|
A|-----------------|-----4----------|-----------------|------------------|
E|-----------------|----------------|(4)-------(4)----|------------------|
    Starved    of     mirth          Let's go and trip a dwarf

Pre-Chorus
e|------------------|-------------6---|---4-------------|------------------|
B|-------7------7-6-|---7-----9-----7-|-----4-----------|------------------|
G|-----6---6--------|-----6-----6-----|-------4-6---4-3-|-4----6-3---4-3---|
D|---8--------------|-------8---------|-----------------|---6------------4-|
A|----------(6)-----|-----------------|-----------------|------------------|
E|------------------|-----------------|(4)-------(4)----|------------------|
  Oh, what to be done with her?

e|------------------|-------------6---|---5-------------|---7-------------|
B|-------7------7-6-|---7-----9-----7-|-----5-------5---|-----7-------7---|
G|-----6---6--------|-----6-----6-----|-------6h7-------|-------8h9-------|
D|---8--------------|-------8---------|-7---------7--/9-|-----------9-----|
A|----------(6)-----|-----------------|-----------------|-----------------|
E|------------------|-----------------|-----------------|-----------------|
  Oh, what to be done with her?

Chorus
e|-----4-------4-4-|---4-4---2---0---|-------------2---|---------2-------|
B|-----4-------4-4-|---4-4---2-----4-|-----4---5-----2-|-----4-----2-----|
G|-----4-------4-4-|---4-4---3-------|---4---4---------|---4-----------4-| x2
D|-6-------2---2-2-|---2-2---4-------|-----------2-----|-2-----2-----2---|
A|-----------------|---------4-------|-----------------|-----------------|
E|-----------------|-----------------|-----------------|-----------------|
  Ah-haha Ah-haha Aah--

Sorry the Chorus is really sketchy, its hard to hear, so I just did chords. If anyone 
genius can work it out, please post a correction!

Verse
Pre-chorus
Chorus
Verse
Pre-chorus
Chorus
Chorus

Thanks to Tiadoro for making the first tab of this, which I worked from, and to these 
videos, which you may find useful
http://www.youtube.com/watch?v=QLMIzDHXov0
http://www.youtube.com/watch?v=02H7G_N6nJo
http://www.youtube.com/watch?v=MnzUvcT2Yd4


************************************

| /   slide up
| \   slide down
| h   hammer-on
| p   pull-off
| ~   vibrato
| +   harmonic
| x   Mute note
| b   Bend
| pb  Pre-bend
| br  Bend release
| pbr Pre-bend release
| brb Bend release bend

************************************
Tap to rate this tab
# A B C D E F G H I J K L M N O P Q R S T U V W X Y Z