Song name
# A B C D E F G H I J K L M N O P Q R S T U V W X Y Z

Smiths - The Hand That Rocks The Cradle tab

-------------------------------------------------------------------------------
THE HAND THAT ROCKS THE CRADLE (TROY TATE VERSION) - The Smiths
-------------------------------------------------------------------------------
Tabbed by: OrangeTrousers

Tuning: Standard, with capo on 2nd fret

The Song; http://www.youtube.com/watch?v=6TlWCbvPiDk

The Chords: G6, Cadd9, Dsus2


e|-----------------|-----------------|
B|-3-3-x-3---3-----|-----1p0-----0h1-|
G|-0-0-x-0---0-4p0-|---0-----2-------|
D|-0-0-x-0---0-----|---------0-0-----|
A|-----------------|-3---------------|
E|-----------------|-----------------|

e|-----------------|-----------------|
B|-3-3-x-3---3-----|-----1-----3-0---|
G|-0-0-x-0---0-4p0-|-----0-----0-----|
D|-0-0-x-0---0-----|---2-------------|
A|-----------------|-3-------5-------|
E|-----------------|-----------------|


************************************

| /   slide up
| \   slide down
| h   hammer-on
| p   pull-off
| ~   vibrato
| +   harmonic
| x   Mute note
| b   Bend
| pb  Pre-bend
| br  Bend release
| pbr Pre-bend release
| brb Bend release bend

************************************
Tap to rate this tab
# A B C D E F G H I J K L M N O P Q R S T U V W X Y Z