Song name
# A B C D E F G H I J K L M N O P Q R S T U V W X Y Z

Smiths - Asleep tab

-------------------------------------------------------------------------------
                             ASLEEP - The Smiths
-------------------------------------------------------------------------------
Tabbed by: Markus Björk
E-mail: markus.bjork77@gmail.com

Originally played on piano, this tab is arranged for guitar.

My first tab, so it might be off in timings. But the notes are correct (the way I play 
it) so learn it and make your own pace and pauses for the right sound.

This is like the main melody. Once you get the hang of it, try adding some extra notes 
to fill it out.

Good luck!


Tuning: Standard tuning E-A-D-G-B-e

Intro/Verse:

   C       F         Am      F
e|-1-0-----0---------1-0---------|
B|-1-1---3-1-----1---1-1---3-1---|
G|-------0-2---2---2-------2-2---|
D|-------------------------------|
A|-3---3-------------0---0-------|
E|---------1-1---------------1---|

   F       G       Am    F           G
e|-----------------------0-----------------|
B|-----1-----0---3---1-0-1-------------0---|
G|---2-------0-------2-2-2-2-0-2-2-----0-0-|
D|-----------------------------------------|
A|-----------------0-----------------------|
E|-1-----1/3---3---------1---------1-3-----|

Verse ending 2nd time:

   F       G       Am    F
e|-----------------------0-----------------|
B|-----1-----0---3---1-0-1-----------------|
G|---2-------0-------2-2-2-2-0-2-2---0-----|
D|-------------------------------------0---|
A|-----------------0---------------------0-|
E|-1-----1/3---3---------1---------1-------|

This gets you right into the middle part…

Middle:

   G
e|-------------------------------------------------|
B|-----0-----1---0-------------0-----1---0-----0---|
G|---0---0---------0---0-----0---0---------0-----0-|
D|-------------------0---0-------------------0-----|
A|-------------------------------------------------|
E|-3-------3---3-----------3-------3---3-----------|

   F             F
e|-0-------------0-----------------|
B|-1-------------1-----------------|
G|-2-2-0-2-2-----2-2-0-2-2---0-----|
D|-----------------------------0---|
A|-------------------------------0-|
E|-1---------1---1---------1-------|

Ending:

It starts off with the last part of the middle piece but without the down stroke to G.

   F             F
e|-0-------------0-----------|
B|-1-------------1-----------|
G|-2-2-0-2-2-----2-2-0-2-2---|
D|---------------------------|
A|---------------------------|
E|-1---------1---1---------1-|

And lands in:

   F         G       F
e|-0---------0-------0-------------|
B|-1-------3---0-0-3-------1-------|
G|-2-2-0-2-------------2-----2-----|
D|-------------------------------0-|
A|---------------------------------|
E|-1---------3-------1---1-----1---|

Repeat as many times you like before hitting:


e|-0---------0-------|
B|-1-------3---0-0---|
G|-2-2-0-2---------0-|
D|-------------------|
A|-------------------|
E|-1---------3-------|

Which brings you back to verse 2.



************************************

| /   slide up
| \   slide down
| h   hammer-on
| p   pull-off
| ~   vibrato
| +   harmonic
| x   Mute note
| b   Bend
| pb  Pre-bend
| br  Bend release
| pbr Pre-bend release
| brb Bend release bend

************************************
Tap to rate this tab
# A B C D E F G H I J K L M N O P Q R S T U V W X Y Z