Song name
# A B C D E F G H I J K L M N O P Q R S T U V W X Y Z

Smiths - Some Girls Are Bigger Than Others tab

Credit goes to http://www.youtube.com/watch?v=yh1nKVtjOg8

e|--------0-----------|-----0------------|
B|-----------0-----0--|--------0---------|
G|--------------------|-----------4---4--|
D|-----6--------6-----|-------------4----|
A|--4-----------------|-/2---------------|
E|--------------------|------------------|

e|-----------0-------|--------0---------||
B|-------------------|-----4-----4------||
G|--------8-------0--|-------------2----||
D|-----7-------/6----|-/4------------4--||
A|--0----------------|------------------||
E|-------------------|------------------||



e|--------0----------4-------|
B|-----4-----4---4-----4---4-|
G|-------------4---4-----4---|
D|-/6------------------------|
A|---------------------------|
E|---------------------------|

e|-----4--------------|----------------|   |--0-0-0-0-0-0-0-0-----|
B|--------5--4--------|----5-----7-----|   |--0-0-0-0-0-0-0-0-----|
G|--------------6-----|-------------8--|   |--1-1-1-1-1-1-1-1-----|
D|-----------------6--|-/7---/9--------|x3   |--2-2-2-2-2-2-2-2----|
A|--4-----------------|----------------|   |--2-2-2-2-2-2-2-2-----|
E|--------------------|----------------|   |--0-0-0-0-0-0-0-0-----|
Tap to rate this tab
# A B C D E F G H I J K L M N O P Q R S T U V W X Y Z