Smiths - Heaven Knows Im Miserable Now tab

-------------------------------------------------------------------------------
                            Heaven Knows I'm Miserable Now- The Smiths
-------------------------------------------------------------------------------
Tabbed by: Chris
E-mail:

Tuning: Capo 2
try and use slides whenever possible between chords. Like Marr

  Intro:                   | Interlude 
  Light on the tremolo..   | Strum pattern and slide
  Don't kill it.           |
e|--7-----5-----4-----0----|--0--0--0--0-----------|
B|--9-----7-----5-----2----|--5--0--7--0-----------|
G|--8-----6-----4-----2----|--6--6--8--8-----------|
D|--9-----7-----6-----2----|--7--7--9--9-----------|
A|--7-----5-----4-----0----|-----------------------|
E|-------------------------|-----------------------|

  Verse 
  Play Twice                    |  You can arpeggio
                                |  this phrase
e|--7----9-----9-----9-----9----|--(0)----(0)------------|
B|--9----9-----12----10----9----|---5------7-------------|
G|--8----9-----9-----9-----9----|---6------8----(8)------|
D|--9----9-----9-----11----11---|---7------9-----9-------|
A|--7----11----11----9-----9----|------------------------|
E|------------------------------|------------------------|

  Chorus (?)
  Kind of like a 
  second ending   
         
                   
e|--7----(0)----(0)---------|--7----(0)----4-----4-----9------9------(9------|
B|--9-----5------7----------|--9-----5-----4-----5-----12-----10-----(9)-----|
G|--8-----6------8----(8)---|--8-----6-----4-----4-----9------9------(9)-----|
D|--9-----7------9-----9----|--9-----7-----6-----6-----11-----11-----(11)----|
A|--7-----------------------|--7-----------------------9------9------(9)-----|
E|--------------------------|------------------------------------------------|

  Continue
                               | Sounds like   |  
                               | Horns   Twice |
e|--(0)----(0)----(0)----4-----|----4--2--0----|---7---9----14--15--16--14---|
B|---5------7------5-----4-----|----5--4--2----|---7---10---14--15--16--14---|
G|---6------8------6-----4-----|---------------|--(9)--11---14--15--16--14---|
D|---7------9------7-----6-----|---------------|-----------------------------|
A|-----------------------------|---------------|-----------------------------|
E|-----------------------------|---------------|-----------------------------|

  Second Verse/Rest of song
  This part is tricky.  It's not exact but it sounds really good 
  The chords in parenthesis are the shapes you're gonna want to use

e|--(4)---------------(2)---------------(2)--------2--------------|--9--7----|
B|--(5)----5---4-5-4--(2)----2---4-5-2--(5)----5----5---(5)---5---|--9--7----|
G|--(4)-----4---------(4)-----4---------(2)-----2----2--(6)----6--|--9--8----|
D|--(6)--6---4--------(2)------2--------(4)--4---4------(7)--7--7-|----------|
A|--(4)---------------(4)--4------------(2)-----------------------|----------|
E|----------------------------------------------------------------|----------|

These are all the phrases.. They repeat through out.


************************************

| /   slide up
| \   slide down
| h   hammer-on
| p   pull-off
| ~   vibrato
| +   harmonic
| x   Mute note
| b   Bend
| pb  Pre-bend
| br  Bend release
| pbr Pre-bend release
| brb Bend release bend

************************************
Tap to rate this tab
 
# A B C D E F G H I J K L M N O P Q R S T U V W X Y Z