Song name
# A B C D E F G H I J K L M N O P Q R S T U V W X Y Z

Smiths - Last Night I Dreamt That Somebody Loved Me tab

The Smiths – Last Night I Dreamt that Somebody Loved Me
Guitar Tab by Jose Luis Castañeda


This is my version for standard tuning, I doubt its 100% exact, but i think its pretty 
This pattern
is repeated over the whole song.

E--10-0-3-2-3-0-5-0-7-0-------------|-------0---3----0--3-----8-----7---5--3|
B-----------------------7-8---------|----1---------1-------------5----5-----|
G-----------------------------------|---------------------------------------|
D-----------------------------------|---------------------------------------|
A---7-------------------------------|---------------------------------------|
E-----------------------------------|---------------------------------------|


E-------------5--------6--------5-----|---2--------------------------2------|
B---4------4----4--------4--------4---|------3---------------4---------4--0-|
G-------5---------5--------5--------5-|---------2---------2------2----------|
D-------------------------------------|----------------4----------4---------|
A-------------------------------------|--------------2----------------------|
E-------------------------------------|-------------------------------------|
Tap to rate this tab
# A B C D E F G H I J K L M N O P Q R S T U V W X Y Z