Song name
# A B C D E F G H I J K L M N O P Q R S T U V W X Y Z

Smiths - I Dont Owe You Anything tab

DADGBe (Capo on 2nd fret)

Intro

|----3----3--------5----5-|
|----5----5--------5----7-|
|----4----4--------6----6-|
|--------x-------------x--|
|-3----x-------------x----|
|-------------------------|

Verse
|-----5----5--------5----5-|
|-----7----7--------7----7-|
|-----6----6--------6----6-|
|---------x-----x-------x--|
|---5---x----x--------x----|
|-0------------------------|

|---------------------0----------0-------|
|------0--------3-------------------0----|
|------------0-------------------------6-|
|---------4-------------------7----------|
|----5-------------0-------0-------------|
|-5--------------------------------------|

|-----------------------------------------|
|------5--------------0-----0----------3--|
|------------4--4s6-------6---------------|
|---5------5--------7---7------------4----|
|-3------3---------------------0-1-2------|
|-----------------------------------------|

|---------------------------|
|-----2---------3-----2-----|
|---------4---------------2-|
|---4---------4-----4-------|
|-2-----2---2-----2-----2---|
|---------------------------|

Chorus
|----------------------2-----0-0--------|
|----------2--0-----0--3--2--3-3--------|
|----------------0-----2--2--0-0--------|
|-------2--------------0--2--5-5--------|
|----4--------------------4--5-5--------|
|-4-----------------------4-------------|

|-----5------5--------------------------|
|-----7------7--7--2--2-2---------------|
|-----6------6--7--2--2-2---------------|
|---7------x----7--2--2-2---------------|
|-5------x------9--4--4-4---------------|
|---------------9--4--4-4---------------|

-NinetiesYouth
Tap to rate this tab
 
# A B C D E F G H I J K L M N O P Q R S T U V W X Y Z