Song name
# A B C D E F G H I J K L M N O P Q R S T U V W X Y Z

Smog - Rock Bottom Riser tab

Smog
"Rock Bottom Riser"
A River Ain't Too Much to Love

Tuning is essential here. First tune your guitar down 3 steps: C#F#BEG#C#, then tune 3rd 
(E) down one more to D#, making it C#F#BD#G#C#.
Wording it another way (because its tricky), make sure you tune the EADBE strings down 3 
the G string down 4, thus giving you C#F#BD#G#C#.

Intro:

C#-----------------------------------------------------------|
G#-----------------------------------------------------------|
D#---0-----------0-----------0-----------0-------------------|
B------12-(x4)-----12-(x4)-----12-(x4)-----9-(x4)------------|
F#14----------13----------12-----------10--------------------|
C#-----------------------------------------------------------|

I love my mother
I love my father
I love my sisters too
I bought this guitar
to pledge my love
to pledge my love to you

I am a rock bottom riser
and I owe it all to you
I am a rock bottom riser
and I owe it all to you


Next part:

C#-----------------------------------------------------------|
G#-----------------------------------------------------------|
D#---0-----0------0-------0-----0--------0------0--------0---|
B------9-----9-------9------9------9--------9------9-------9-|
F#-------0--------------0-------------10--------------10-----|
C#10-----------10-------------0---------------0--------------|

I saw gold rings
at the bottom of the river
glinting
at my foolish heart
Oh my foolish heart
had to go diving
diving diving diving
into the murk

And from the bottom of the river
I looked up for the sun
Which had shattered in the water
And the pieces were raining down
Like gold rings
That passed through my hands
As I thrashed and I grabbed
I started rising rising rising

Now back to the intro


Note: It sounds better if you play soft with your fingers instead of using a pick. 
to the song to get the beat. It goes slow.

I'd love some feedback, as this is my first tab.

joeyjoey@hotmail.com
Tap to rate this tab
# A B C D E F G H I J K L M N O P Q R S T U V W X Y Z