Smog - Bathysphere tab

-------------------------------------------------------------------------------
			     BATHYSPHERE-Smog
-------------------------------------------------------------------------------
Tabbed by: Joseph
Email: joseph.barker83@gmail.com

Tuning:DB#DGBF
drop D, tune the A up 1/2 a step, tune the high E up 1/2 a step

F|------------------------------------------------|
B|---3-----3-----3------3-----3-----3-------------|
G|-----0-----0-----0------0-----0-----------------|
D|-------------0------------------0---------------|
B#|------0------------------0---------------------|
D|-5-----------------5----------------------------|

F|---0-----0-----0-----0-----0--------------------|
B|-----4-----4-----4-----4-----4---4--------------|
G|------------------------------------------------|
D|-------------1-----------------1----------------|
B#|------0-----------------0----------------------|
D|-1-----------------1----------------------------|

This tab sounds best on an acoustic, I tabbed in the bass line to make it a little 
better/more challenging.
************************************

| /   slide up
| \   slide down
| h   hammer-on
| p   pull-off
| ~   vibrato
| +   harmonic
| x   Mute note
| b   Bend
| pb  Pre-bend
| br  Bend release
| pbr Pre-bend release
| brb Bend release bend
Tap to rate this tab
 
# A B C D E F G H I J K L M N O P Q R S T U V W X Y Z