Song name
# A B C D E F G H I J K L M N O P Q R S T U V W X Y Z

Smogus - Let Me Be Acoustic tab

Song: Let Me Be (Acoustic)
Artist: Smogus
Album: Smogus - Live & Unplugged
Tabbed by: Erik
Tuning: EADGBE

Intro:
E-----------------------------------------------------------------------|
A-----------------------------------------------------------------------|
D-----------------------------------------------------------------------|
G--------7-9----5-7-9------------------------7-9-------------5-7-9------|
B--7^8^7--------------8^7--------------7^8^7-----------------------8^7--|
E-------------------------10--10^12--------------10-10-10^12------------|

E-----------------------------------------------------------------------|
A-----------------------------------------------------------------------|
D-----------------------------------------------------------------------|
G--------7-9---5-7-9-------------------------7^9-------------5-7-9------|
B--7^8^7-------------8^7---------------7^8^7-----------------------8^7--|
E-----------------------------------------------------------------------|

E---------------------------------------------------------------------------------------|
A---------------------------------------------------------------------------------------|
D---------------------------------------------------------------------------------------|
G------------------------------------------------------------5-7-9----------------------|
B--7^8^7-------------------------------7^8^7-7-7^8^7-5-------------------7^8^7-7-7-7-5--|
E---------10-10-10^12-----10-10-10^12-------7-------------------------------------------|
                                                                       -Incoming Drums

Just play some variations of the intro for the verses

Interlude:
Go away and let me be            Go away and let me be
E--------3--------3--------------------3--------3--------------|
B--------4--------4--------------------4--------4--------------|
G--------5--------5--------------------5--------5--------------|
D--------5--------5--------------------5--------5--------------|
A--2--2--2--2--2--2--2--2--0--0--------2--------2--------0--0--|
E--------------------------------2--2-----2--2-----2--2--------| 2x

Chorus:
B                 G
  Go away, you're choking me
B       D         Am
  Go away and let me be
B                 G
  Go away, you're choking me
B       D         Am
  Go away and let me be

Verse, Interlude, Chorus

Bridge:
Am      Em

Chorus, Interlude

FIN

http://www.smogus.com
Tap to rate this tab
# A B C D E F G H I J K L M N O P Q R S T U V W X Y Z