Song name
# A B C D E F G H I J K L M N O P Q R S T U V W X Y Z

Smoke Or Fire - Culture As Given tab

Culture As Given - Smoke or Fire
Tabbed by: Simsimius
E-mail: simsimius@gmail.com

Real easy song, thought I'd tab it out for any upcoming punk rockers (or anyone who 
needs to learn the song quick) who want to get started playing a great song by a great band.
Listen to the song for nuances that aren't written out here (such as the intro).

Tuning: E Standard

Key:
<5> - Natural Harmonic

Intro
e|----------------------------------------------------|
B|----------------------------------------------------|
G|-------------------------------------7-7777777777---|
D|--4--2-4--2-4-2-(x2)-4-5-7-5-2-4-5-4-x-xxxxxxxxxx---|
A|-------------------------------------5-5555555555---|
E|----------------------------------------------------|

Main Riff (x2)
e|----------------------------------------------------|
B|----------------------------------------------------|
G|--4-x4-x4x-4-x4-x4x-----77-9-1111-66-7-99-----------|
D|--4-x4-x4x-4-x4-x4x(x2)-xx-x--x-x-xx-x-xx-----------|
A|--2-x2-x2x-2-x2-x2x-----55-7--9-9-44-5-77-----------|
E|----------------------------------------------------|

Verse (x4) (on 4th repeat a second guitar plays the octave too)
e|----------------------------------------------------|
B|----------------------------------------------------|
G|----------------------------------------------------|
G|-7777777777777777---4-x4-x4x-2-x2-x2x---------------|
D|-xxxxxxxxxxxxxxxx---4-x4-x4x-2-x2-x2x---------------|
A|-5555555555555555---2-x2-x2x-0-x0-x0x---------------|
E|----------------------------------------------------|

Chorus (x2)
e|----------------------------------------------------|
B|----------------------------------------------------|
G|-999-7-777--------77-999-111111-666-777-99----------|
D|-xxx-x-xxx-(x2)---xx-xxx--x-x-x-xxx-xxx-xx----------|
A|-777-5-555--------55-777--9-9-9-444-555-77----------|
E|----------------------------------------------------|

Verse (x2)
e|----------------------------------------------------|
B|----------------------------------------------------|
G|----------------------------------------------------|
G|-7777777777777777---4-x4-x4x-2-x2-x2x---------------|
D|-xxxxxxxxxxxxxxxx---4-x4-x4x-2-x2-x2x---------------|
A|-5555555555555555---2-x2-x2x-0-x0-x0x---------------|
E|----------------------------------------------------|

Chorus 2 (2)
e|----------------------------------------------------|
B|----------------------------------------------------|
G|--4-x4-x4x-4-x4-x4x-----77-9-1111-66-7-99-----------|
D|--4-x4-x4x-4-x4-x4x(x2)-xx-x--x-x-xx-x-xx-----------|
A|--2-x2-x2x-2-x2-x2x-----55-7--9-9-44-5-77-----------|
E|----------------------------------------------------|

Riff (x2) (can play the first repeating half as an octave if you want a thicker sound)
e|----------------------------------------------------|
B|----------------------------------------------------|
G|----------------------------------------------------|
D|--4--2-4--2-4-2-(x2)-444-555-777-555-222-444-555-444|
A|----------------------------------------------------|
E|----------------------------------------------------|

Outro
e|---------------------------------------------------------|
B|---------------------------------------------------------|
G|---------4---2----------<5>------------------------------|
D|555-222--4---2-(x3)--55-<5>------------------------------|
A|555-222--2---0-------55----------------------------------|
E|333-000--------------33----------------------------------|
Tap to rate this tab
 
# A B C D E F G H I J K L M N O P Q R S T U V W X Y Z