Song name
# A B C D E F G H I J K L M N O P Q R S T U V W X Y Z

Smoke Or Fire - Beauty Fades tab

--------------------------------------------------------------------------
                      BEAUTY FADES - jericho {rva}
--------------------------------------------------------------------------

Band: Jericho {RVA} (Now Smoke or Fire)
Album: Worker's Union (2003, Iodine Recordings)
Song: Beauty Fades

Tabbed by Kyle T.
Contact: pants_me@hotmail.com
Site: www.wqhosting.com/~ohpkyle/

Standard tuning (EADGbe)

Legend:

pm... - Palm mute
  x   - Dead note
  ~   - Let ring
  %   - Rest
  /   - Slide up
  \   - Slide down
  h   - hammer on

---

Note: Guitar 1 is on top, guitar 2 is on bottom (where applicable). This
song also has a key change! F# to G... woo, yeah (if I'm right, that is).
Solo-like parts might be off, but I'm relatively certain I have the
right note intervals; so if it's not sounding alright, move it around
(changing it accordingly for notes that have no half-step between, such
as B to C and E to F).

---

Chords used:

    G5  B5  C5  D5  E5    C#/F#    G5ii
e|-------------------------------------|
b|------------------------------6------|
G|------4---5---7---9-----------6---7--|
D|--5---4---5---7---9---3--and--4---5--|
A|--5---2---3---5---7---4--------------|
E|--3-------------------2--------------|

Intro  (0:00-0:35):

 [Guitar 1]
e|-----------------|-----------------|-----------------|-----------------|
b|-----------------|-----------------|-----------------|-----------------|
G|-----------------|-----------------|-----------------|-----------------|
D|---------3-3-----|---------3-3-----|---------3-3-----|---------3-3-----|
A|-----4-4-----4-4-|-----4-4-----4-4-|-----4-4-----4-4-|-----4-4-----4-4-|
E|-2-2-------------|-2-2-------------|-2-2-------------|-2-2-------------|
 |                                                                       |
 [Guitar 2]                                                              |
e|-----------------|-----------------|-----------------|-----------------|
b|-----------------|-----------------|-----------------|-----------------|
G|-----------------|-----------------|-----------------|-----------------|
D|-4~~~------------|--------%--------|--------%--------|--------%--------|
A|-----------------|-----------------|-----------------|-----------------|
E|-----------------|-----------------|-----------------|-----------------|


e|-----------------|-----------------|-----------------|-----------------|
b|-----------------|-----------------|-----------------|-----------------|
G|-----------------|-----------------|-----------------|-----------------|
D|---------3-3-----|---------3-3-----|---------3-3-----|---------3-3-----|
A|-----4-4-----4-4-|-----4-4-----4-4-|-----4-4-----4-4-|-----4-4-----4-4-|
E|-2-2-------------|-2-2-------------|-2-2-------------|-2-2-------------|
 |                                                                       |  
 |                                                                       |
e|-----------------|-----------------|-----------------|-----------------|
b|---------6-6-----|---------6-6-----|---------6-6-----|---------6-6-----|
G|-----6-6-----6-6-|-----6-6-----6-6-|-----6-6-----6-6-|-----6-6-----6-6-|
D|-4-4-------------|-4-4-------------|-4-4-------------|-4-4-------------|
A|-----------------|-----------------|-----------------|-----------------|
E|-----------------|-----------------|-----------------|-----------------|


e|-----------------|-----------------|-----------------|-----------------|
b|-----------------|-----------------|-----------------|-----------------|
G|-----------------|-----------------|-----------------|-----------------|
D|-5-5-5-5-5-5-5-5-|-7-7-7-7-7-7-7-7-|-9-9-9-9-9-9-9-9-|---------4-4-4-4-|
A|-3-3-3-3-3-3-3-3-|-5-5-5-5-5-5-5-5-|-7-7-7-7-7-7-7-7-|-5-5-5-5-2-2-2-2-|
E|-----------------|-----------------|-----------------|-3-3-3-3---------|
 | . . . . . . . .   . . . . . . . .   . . . . . . . .   . . . . . . . . |
 |                                                                       |
e|-----------------|-----------------|-----------------|-----------------|
b|-----0~---0~--0~-|-----0~---0~--0~-|-----0~---0~--0~-|-----0-0---------|
G|-----------------|-----------------|-----------------|-7-7-7-7---------|
D|-5-5---5-5--5----|-7-7---7-7---7---|-9-9---9-9---9---|-5-5-5-5-4-4-4-4-|
A|-3-3---3-3--3----|-5-5---5-5---5---|-7-7---7-7---7---|---------2-2-2-2-|
E|-----------------|-----------------|-----------------|-----------------|


e|-----------------|-----------------|-----------------|-----------------|
b|-----------------|-----------------|-----------------|-----------------|
G|-----------------|-----------------|-----------------|-----------------|
D|-5-5-5-5-5-5-5-5-|-7-7-7-7-7-7-7-7-|-9-9-9-9-9-9-9-9-|---------4-4-4-4-|
A|-3-3-3-3-3-3-3-3-|-5-5-5-5-5-5-5-5-|-7-7-7-7-7-7-7-7-|-5-5-5-5-2-2-2-2-|
E|-----------------|-----------------|-----------------|-3-3-3-3---------|
 | . . . . . . . .   . . . . . . . .   . . . . . . . .   . . . . . . . . |
 |                                                                       |
e|-----------------|-----------------|-----------------|-----------------|
b|-----0~---0~--0~-|-----0~---0~--0~-|-----0~---0~--0~-|-----0-0---------|
G|-----------------|-----------------|-----------------|-7-7-7-7---------|
D|-5-5---5-5--5----|-7-7---7-7---7---|-9-9---9-9---9---|-5-5-5-5-4-4-4-4-|
A|-3-3---3-3--3----|-5-5---5-5---5---|-7-7---7-7---7---|---------2-2-2-2-|
E|-----------------|-----------------|-----------------|-----------------|


e|-----------------|-----------------|-----------------|-----------------|
b|-----------------|-----------------|-----------------|-----------------|
G|-----------------|-----------------|-----------------|-----------------|
D|-5-5-5-5-5-5-5-5-|-7-7-7-7-7-7-7-7-|-9-9-9-9-9-9-9-9-|---------4-4-4-4-|
A|-3-3-3-3-3-3-3-3-|-5-5-5-5-5-5-5-5-|-7-7-7-7-7-7-7-7-|-5-5-5-5-2-2-2-2-|
E|-----------------|-----------------|-----------------|-3-3-3-3---------|
 | . . . . . . . .   . . . . . . . .   . . . . . . . .   . . . . . . . . |
 |                                                                       |
e|-----------------|-----------------|-----------------|-----------------|
b|-----0~---0~--0~-|-----0~---0~--0~-|-----0~---0~--0~-|-----0-0---------|
G|-----------------|-----------------|-----------------|-7-7-7-7---------|
D|-5-5---5-5--5----|-7-7---7-7---7---|-9-9---9-9---9---|-5-5-5-5-4-4-4-4-|
A|-3-3---3-3--3----|-5-5---5-5---5---|-7-7---7-7---7---|---------2-2-2-2-|
E|-----------------|-----------------|-----------------|-----------------|


e|-----------------|-----------------|-----------------|-----------------|
b|-----------------|-----------------|-----------------|-----------------|
G|-----------------|-----------------|-----------------|-----------------|
D|-5-5-5-5-5-5-5-5-|-7-7-7-7-7-7-7-7-|-9-9-9-9-9-9-9-9-|---------4-4-4-4-|
A|-3-3-3-3-3-3-3-3-|-5-5-5-5-5-5-5-5-|-7-7-7-7-7-7-7-7-|-5-5-5-5-2-2-2-2-|
E|-----------------|-----------------|-----------------|-3-3-3-3---------|
 | . . . . . . . .   . . . . . . . .   . . . . . . . .   . . . . . . . . |
 |                                                                       |
e|-----------------|-----------------|-----------------|-----------------|
b|-----0~---0~--0~-|-----0~---0~--0~-|-----0~---0~--0~-|-----0-0---------|
G|-----------------|-----------------|-----------------|-7-7-7-7---------|
D|-5-5---5-5--5----|-7-7---7-7---7---|-9-9---9-9---9---|-5-5-5-5-4-4-4-4-|
A|-3-3---3-3--3----|-5-5---5-5---5---|-7-7---7-7---7---|---------2-2-2-2-|
E|-----------------|-----------------|-----------------|-----------------|


Verse  (0:36-0:50):

e|-----------------|-----------------|-----------------|-----------------|
b|-----------------|-----------------|-----------------|-----------------|
G|-5-5-5-5-5-5-5-5-|-9-9-9-9-7-7-9-9\|-5-5-5-5-5-5-5-5-|-9-9-9-9-7-7-7-7-|
D|-5-5-5-5-5-5-5-5-|-x-x-x-x-x-x-x-x-|-5-5-5-5-5-5-5-5-|-x-x-x-x-x-x-x-x-|
A|-3-3-3-3-3-3-3-3-|-7-7-7-7-5-5-7-7\|-3-3-3-3-3-3-3-3-|-7-7-7-7-5-5-5-5-|
E|-----------------|-----------------|-----------------|-----------------|

  Beauty fades from this and every landscape that I've ever seen.
  Time slips by, and we all become memories.

e|-----------------|-----------------|-----------------|-----------------|
b|-----------------|-----------------|-----------------|-----------------|
G|-5-5-5-5-5-5-5-5-|-9-9-9-9-7-7-9-9\|-5-5-5-5-5-5-5-5-|-9-9-9-9-7-7-7-7-|
D|-5-5-5-5-5-5-5-5-|-x-x-x-x-x-x-x-x-|-5-5-5-5-5-5-5-5-|-x-x-x-x-x-x-x-x-|
A|-3-3-3-3-3-3-3-3-|-7-7-7-7-5-5-7-7\|-3-3-3-3-3-3-3-3-|-7-7-7-7-5-5-5-5-|
E|-----------------|-----------------|-----------------|-----------------|

  So instead of wasting time, thinking of things I'd rather be,
  I'm untied and this has left a hole in me.

  
Pre Chorus (0:50-1:17):

e|-----------------|-----------------|-----------------|-----------------|
b|-----------------|-----------------|-----------------|-----------------|
G|-5-5-5-5-5-5-5-5-|-7-7-7-7-7-7-7-7-|-9-9-9-9-9-9-9-9-|---------4-4-4-4-|
D|-5-5-5-5-5-5-5-5-|-7-7-7-7-7-7-7-7-|-9-9-9-9-9-9-9-9-|-5-5-5-5-4-4-4-4-|
A|-3-3-3-3-3-3-3-3-|-5-5-5-5-5-5-5-5-|-7-7-7-7-7-7-7-7-|-5-5-5-5-2-2-2-2-|
E|-----------------|-----------------|-----------------|-3-3-3-3---------|

  It always was my biggest fear to die without changing a goddamn thing.

e|-----------------|-----------------|-----------------|-----------------|
b|-----------------|-----------------|-----------------|-----------------|
G|-5-5-5-5-5-5-5-5-|-7-7-7-7-7-7-7-7-|-9-9-9-9-9-9-9-9-|---------4-4-4-4-|
D|-5-5-5-5-5-5-5-5-|-7-7-7-7-7-7-7-7-|-9-9-9-9-9-9-9-9-|-5-5-5-5-4-4-4-4-|
A|-3-3-3-3-3-3-3-3-|-5-5-5-5-5-5-5-5-|-7-7-7-7-7-7-7-7-|-5-5-5-5-2-2-2-2-|
E|-----------------|-----------------|-----------------|-3-3-3-3---------|

  We say the words, but do we understand the difference between speaking and
  living them?

e|-----------------|-----------------|-----------------|-----------------|
b|-----------------|-----------------|-----------------|-----------------|
G|-5-5-5-5-5-5-5-5-|-7-7-7-7-7-7-7-7-|-9-9-9-9-9-9-9-9-|---------4-4-4-4-|
D|-5-5-5-5-5-5-5-5-|-7-7-7-7-7-7-7-7-|-9-9-9-9-9-9-9-9-|-5-5-5-5-4-4-4-4-|
A|-3-3-3-3-3-3-3-3-|-5-5-5-5-5-5-5-5-|-7-7-7-7-7-7-7-7-|-5-5-5-5-2-2-2-2-|
E|-----------------|-----------------|-----------------|-3-3-3-3---------|

  "I always was... I'll never be" is what we'd like to think but the others
  see.

e|-----------------|-----------------|
b|-----------------|-----------------|
G|-5-5-5-5-5-5-5-5-|-7--7--7--7------|
D|-5-5-5-5-5-5-5-5-|-7--7--7--7---%--|
A|-3-3-3-3-3-3-3-3-|-5--5--5--5------|
E|-----------------|-----------------|


Verse 2 (1:18-1:34):

e|-----------------|-----------------|-----------------|-----------------|
b|-----------------|-----------------|-----------------|-----------------|
G|-5-5-5-5-5-5-5-5-|-9-9-9-9-7-7-9-9\|-5-5-5-5-5-5-5-5-|-9-9-9-9-7-7-7-7-|
D|-5-5-5-5-5-5-5-5-|-x-x-x-x-x-x-x-x-|-5-5-5-5-5-5-5-5-|-x-x-x-x-x-x-x-x-|
A|-3-3-3-3-3-3-3-3-|-7-7-7-7-5-5-7-7\|-3-3-3-3-3-3-3-3-|-7-7-7-7-5-5-5-5-|
E|-----------------|-----------------|-----------------|-----------------|

  Beauty fades from this and every landscape that I've ever seen.
  Time slips by, and we all become memories.

e|-----------------|-----------------|-----------------|-----------------|
b|-----------------|-----------------|-----------------|-----------------|
G|-5-5-5-5-5-5-5-5-|-9-9-9-9-7-7-9-9\|-5-5-5-5-5-5-5-5-|-9-9-9-9-7-7-7-7-|
D|-5-5-5-5-5-5-5-5-|-x-x-x-x-x-x-x-x-|-5-5-5-5-5-5-5-5-|-x-x-x-x-x-x-x-x-|
A|-3-3-3-3-3-3-3-3-|-7-7-7-7-5-5-7-7\|-3-3-3-3-3-3-3-3-|-7-7-7-7-5-5-5-5-|
E|-----------------|-----------------|-----------------|-----------------|

  So instead of wasting time, thinking of things I'd rather be,
  I'm untied and this has left a hole in me.


Chorus (1:34-2:05):

e|-----------------|-----------------|-----------------|-----------------|
b|-----------------|-----------------|-----------------|-----------------|
G|-----------------|-9-9-9-9-7-7-7-7-|-5-5-5-5-5~~~~---|-9-9-9-9-7-7-7-7-|
D|---------5~~~~---|-x-x-x-x-x-x-x-x-|-5-5-5-5-5~~~~---|-x-x-x-x-x-x-x-x-|
A|-5-5-5-5-5~~~~---|-7-7-7-7-5-5-5-5-|-3-3-3-3-3~~~~---|-7-7-7-7-5-5-5-5-|
E|-3-3-3-3-3~~~~---|-----------------|-----------------|-----------------|
 | . . . .                                                               |
 |                                                                       |
e|-----------------|-----------------|-3h53h53h53h5/7-5|-----------------|
b|-----------------|-----------------|-----------------|-----------------|
G|-----------------|-9-9-9-9-7-7-7-7-|-----------------|-9-9-9-9-7-7-7-7-|
D|---------5~~~~---|-x-x-x-x-x-x-x-x-|-----------------|-x-x-x-x-x-x-x-x-|
A|-5-5-5-5-5~~~~---|-7-7-7-7-5-5-5-5-|-----------------|-7-7-7-7-5-5-5-5-|
E|-3-3-3-3-3~~~~---|-----------------|-----------------|-----------------|
   . . . .    

  And our lives begin to fade away. We look for something or someone to
  save us.

e|-----------------|-----------------|-----------------|-----------------|
b|-----------------|-----------------|-----------------|-----------------|
G|-----------------|-9-9-9-9-7-7-7-7-|-5-5-5-5-5~~~~---|-9-9-9-9-7-7-7-7-|
D|---------5~~~~---|-x-x-x-x-x-x-x-x-|-5-5-5-5-5~~~~---|-x-x-x-x-x-x-x-x-|
A|-5-5-5-5-5~~~~---|-7-7-7-7-5-5-5-5-|-3-3-3-3-3~~~~---|-7-7-7-7-5-5-5-5-|
E|-3-3-3-3-3~~~~---|-----------------|-----------------|-----------------|
 | . . . .                                                               |
 |                                                                       |
e|-----------------|-----------------|-3h53h53h53h5/7-5|-----------------|
b|-----------------|-----------------|-----------------|-----------------|
G|-----------------|-9-9-9-9-7-7-7-7-|-----------------|-9-9-9-9-7-7-7-7-|
D|---------5~~~~---|-x-x-x-x-x-x-x-x-|-----------------|-x-x-x-x-x-x-x-x-|
A|-5-5-5-5-5~~~~---|-7-7-7-7-5-5-5-5-|-----------------|-7-7-7-7-5-5-5-5-|
E|-3-3-3-3-3~~~~---|-----------------|-----------------|-----------------|
   . . . .    

  Try to think of what you wanted to be before the fear of failing won 
  you over.

e|-----------------|-----------------|-----------------|-----------------|
b|-----------------|-----------------|-----------------|-----------------|
G|-----------------|-9-9-9-9-7-7-7-7-|-5-5-5-5-5~~~~---|-9-9-9-9-7-7-7-7-|
D|---------5~~~~---|-x-x-x-x-x-x-x-x-|-5-5-5-5-5~~~~---|-x-x-x-x-x-x-x-x-|
A|-5-5-5-5-5~~~~---|-7-7-7-7-5-5-5-5-|-3-3-3-3-3~~~~---|-7-7-7-7-5-5-5-5-|
E|-3-3-3-3-3~~~~---|-----------------|-----------------|-----------------|
 | . . . .                                                               |
 |                                                                       |
e|-----------------|-----------------|-3h53h53h53h5/7-5|-----------------|
b|-----------------|-----------------|-----------------|-----------------|
G|-----------------|-9-9-9-9-7-7-7-7-|-----------------|-9-9-9-9-7-7-7-7-|
D|---------5~~~~---|-x-x-x-x-x-x-x-x-|-----------------|-x-x-x-x-x-x-x-x-|
A|-5-5-5-5-5~~~~---|-7-7-7-7-5-5-5-5-|-----------------|-7-7-7-7-5-5-5-5-|
E|-3-3-3-3-3~~~~---|-----------------|-----------------|-----------------|
   . . . .    

  All those places that you wanted to see will remain in postcards and
  pictures...

e|-----------------|-----------------|-----------------|-----------------|
b|-----------------|-----------------|-----------------|-----------------|
G|-----------------|-9-9-9-9-7-7-7-7-|-5-5-5-5-5~~~~---|-9-9-9-9-7-7-7-7-|
D|---------5~~~~---|-x-x-x-x-x-x-x-x-|-5-5-5-5-5~~~~---|-x-x-x-x-x-x-x-x-|
A|-5-5-5-5-5~~~~---|-7-7-7-7-5-5-5-5-|-3-3-3-3-3~~~~---|-7-7-7-7-5-5-5-5-|
E|-3-3-3-3-3~~~~---|-----------------|-----------------|-----------------|
 | . . . .                                                               |
 |                                                                       |
e|-----------------|-----------------|-3h53h53h53h5/7-5|-----------------|
b|-----------------|-----------------|-----------------|-----------------|
G|-----------------|-9-9-9-9-7-7-7-7-|-----------------|-9-9-9-9-7-7-7-7-|
D|---------5~~~~---|-x-x-x-x-x-x-x-x-|-----------------|-x-x-x-x-x-x-x-x-|
A|-5-5-5-5-5~~~~---|-7-7-7-7-5-5-5-5-|-----------------|-7-7-7-7-5-5-5-5-|
E|-3-3-3-3-3~~~~---|-----------------|-----------------|-----------------|
   . . . .    

  Until you die or finally take a chance. Say goodbye to all you've ever
  known.


Post Chorus (2:05-2:34):

e|-----------------|-----------------|-----------------|-----------------|
b|-----------------|-----------------|-----------------|-----------------|
G|-----------------|-----------------|-----------------|-----------------|
D|-5-5-5-5-5-5-5-5-|-7-7-7-7-7-7-7-7-|-9-9-9-9-9-9-9-9-|---------4-4-4-4-|
A|-3-3-3-3-3-3-3-3-|-5-5-5-5-5-5-5-5-|-7-7-7-7-7-7-7-7-|-5-5-5-5-2-2-2-2-|
E|-----------------|-----------------|-----------------|-3-3-3-3---------|
 | . . . . . . . .   . . . . . . . .   . . . . . . . .   . . . . . . . . |
 |                                                                       |
e|-----------------|-----------------|-----------------|-----------------|
b|-----0~---0~--0~-|-----0~---0~--0~-|-----0~---0~--0~-|-----0-0---------|
G|-----------------|-----------------|-----------------|-7-7-7-7---------|
D|-5-5---5-5--5----|-7-7---7-7---7---|-9-9---9-9---9---|-5-5-5-5-4-4-4-4-|
A|-3-3---3-3--3----|-5-5---5-5---5---|-7-7---7-7---7---|---------2-2-2-2-|
E|-----------------|-----------------|-----------------|-----------------|

  Say goodbye to all you've ever known.

e|-----------------|-----------------|-----------------|-----------------|
b|-----------------|-----------------|-----------------|-----------------|
G|-----------------|-----------------|-----------------|-----------------|
D|-5-5-5-5-5-5-5-5-|-7-7-7-7-7-7-7-7-|-9-9-9-9-9-9-9-9-|---------4-4-4-4-|
A|-3-3-3-3-3-3-3-3-|-5-5-5-5-5-5-5-5-|-7-7-7-7-7-7-7-7-|-5-5-5-5-2-2-2-2-|
E|-----------------|-----------------|-----------------|-3-3-3-3---------|
 | . . . . . . . .   . . . . . . . .   . . . . . . . .   . . . . . . . . |
 |                                                                       |
e|-----------------|-----------------|-----------------|-----------------|
b|-----0~---0~--0~-|-----0~---0~--0~-|-----0~---0~--0~-|-----0-0---------|
G|-----------------|-----------------|-----------------|-7-7-7-7---------|
D|-5-5---5-5--5----|-7-7---7-7---7---|-9-9---9-9---9---|-5-5-5-5-4-4-4-4-|
A|-3-3---3-3--3----|-5-5---5-5---5---|-7-7---7-7---7---|---------2-2-2-2-|
E|-----------------|-----------------|-----------------|-----------------|

  Say goodbye to all you've ever known.

e|-----------------|-----------------|-----------------|-----------------|
b|-----------------|-----------------|-----------------|-----------------|
G|-----------------|-----------------|-----------------|-----------------|
D|-5-5-5-5-5-5-5-5-|-7-7-7-7-7-7-7-7-|-9-9-9-9-9-9-9-9-|---------4-4-4-4-|
A|-3-3-3-3-3-3-3-3-|-5-5-5-5-5-5-5-5-|-7-7-7-7-7-7-7-7-|-5-5-5-5-2-2-2-2-|
E|-----------------|-----------------|-----------------|-3-3-3-3---------|
 | . . . . . . . .   . . . . . . . .   . . . . . . . .   . . . . . . . . |
 |                                                                       |
e|-----------------|-----------------|-----------------|-----------------|
b|-----0~---0~--0~-|-----0~---0~--0~-|-----0~---0~--0~-|-----0-0---------|
G|-----------------|-----------------|-----------------|-7-7-7-7---------|
D|-5-5---5-5--5----|-7-7---7-7---7---|-9-9---9-9---9---|-5-5-5-5-4-4-4-4-|
A|-3-3---3-3--3----|-5-5---5-5---5---|-7-7---7-7---7---|---------2-2-2-2-|
E|-----------------|-----------------|-----------------|-----------------|

  Say goodbye to all you've ever known.

e|-----------------|-----------------|
b|-----------------|-----------------|
G|-----------------|-----------------|
D|-5-5-5-5-5-5-5-5-|-7--7--7--7--7---|
A|-3-3-3-3-3-3-3-3-|-5--5--5--5--5---|
E|-----------------|-----------------|
 | . . . . . . . .   .  .  .  .  .   |
 |                                   |
e|-0h3h5-7--5--3~--|-0--5--7--5--3---|
b|-----------------|-----------------|
G|-----------------|-----------------|
D|-----------------|-----------------|
A|-----------------|-----------------|
E|-----------------|-----------------|


Chorus (2:34-3:05):

e|-----------------|-----------------|-----------------|-----------------|
b|-----------------|-----------------|-----------------|-----------------|
G|-----------------|-9-9-9-9-7-7-7-7-|-5-5-5-5-5~~~~---|-9-9-9-9-7-7-7-7-|
D|---------5~~~~---|-x-x-x-x-x-x-x-x-|-5-5-5-5-5~~~~---|-x-x-x-x-x-x-x-x-|
A|-5-5-5-5-5~~~~---|-7-7-7-7-5-5-5-5-|-3-3-3-3-3~~~~---|-7-7-7-7-5-5-5-5-|
E|-3-3-3-3-3~~~~---|-----------------|-----------------|-----------------|
 | . . . .                                                               |
 |                                                                       |
e|-----------------|-----------------|-3h53h53h53h5/7-5|-----------------|
b|-----------------|-----------------|-----------------|-----------------|
G|-----------------|-9-9-9-9-7-7-7-7-|-----------------|-9-9-9-9-7-7-7-7-|
D|---------5~~~~---|-x-x-x-x-x-x-x-x-|-----------------|-x-x-x-x-x-x-x-x-|
A|-5-5-5-5-5~~~~---|-7-7-7-7-5-5-5-5-|-----------------|-7-7-7-7-5-5-5-5-|
E|-3-3-3-3-3~~~~---|-----------------|-----------------|-----------------|
   . . . .    

  And our lives begin to fade away. We look for something or someone to
  save us.

e|-----------------|-----------------|-----------------|-----------------|
b|-----------------|-----------------|-----------------|-----------------|
G|-----------------|-9-9-9-9-7-7-7-7-|-5-5-5-5-5~~~~---|-9-9-9-9-7-7-7-7-|
D|---------5~~~~---|-x-x-x-x-x-x-x-x-|-5-5-5-5-5~~~~---|-x-x-x-x-x-x-x-x-|
A|-5-5-5-5-5~~~~---|-7-7-7-7-5-5-5-5-|-3-3-3-3-3~~~~---|-7-7-7-7-5-5-5-5-|
E|-3-3-3-3-3~~~~---|-----------------|-----------------|-----------------|
 | . . . .                                                               |
 |                                                                       |
e|-----------------|-----------------|-3h53h53h53h5/7-5|-----------------|
b|-----------------|-----------------|-----------------|-----------------|
G|-----------------|-9-9-9-9-7-7-7-7-|-----------------|-9-9-9-9-7-7-7-7-|
D|---------5~~~~---|-x-x-x-x-x-x-x-x-|-----------------|-x-x-x-x-x-x-x-x-|
A|-5-5-5-5-5~~~~---|-7-7-7-7-5-5-5-5-|-----------------|-7-7-7-7-5-5-5-5-|
E|-3-3-3-3-3~~~~---|-----------------|-----------------|-----------------|
   . . . .    

  Try to think of what you wanted to be before the fear of failing won 
  you over.

e|-----------------|-----------------|-----------------|-----------------|
b|-----------------|-----------------|-----------------|-----------------|
G|-----------------|-9-9-9-9-7-7-7-7-|-5-5-5-5-5~~~~---|-9-9-9-9-7-7-7-7-|
D|---------5~~~~---|-x-x-x-x-x-x-x-x-|-5-5-5-5-5~~~~---|-x-x-x-x-x-x-x-x-|
A|-5-5-5-5-5~~~~---|-7-7-7-7-5-5-5-5-|-3-3-3-3-3~~~~---|-7-7-7-7-5-5-5-5-|
E|-3-3-3-3-3~~~~---|-----------------|-----------------|-----------------|
 | . . . .                                                               |
 |                                                                       |
e|-----------------|-----------------|-3h53h53h53h5/7-5|-----------------|
b|-----------------|-----------------|-----------------|-----------------|
G|-----------------|-9-9-9-9-7-7-7-7-|-----------------|-9-9-9-9-7-7-7-7-|
D|---------5~~~~---|-x-x-x-x-x-x-x-x-|-----------------|-x-x-x-x-x-x-x-x-|
A|-5-5-5-5-5~~~~---|-7-7-7-7-5-5-5-5-|-----------------|-7-7-7-7-5-5-5-5-|
E|-3-3-3-3-3~~~~---|-----------------|-----------------|-----------------|
   . . . .    

  All those places that you wanted to see will remain in postcards and
  pictures...

e|-----------------|-----------------|-----------------|-----------------|
b|-----------------|-----------------|-----------------|-----------------|
G|-----------------|-9-9-9-9-7-7-7-7-|-5-5-5-5-5~~~~---|-9-9-9-9-7-7-7-7-|
D|---------5~~~~---|-x-x-x-x-x-x-x-x-|-5-5-5-5-5~~~~---|-x-x-x-x-x-x-x-x-|
A|-5-5-5-5-5~~~~---|-7-7-7-7-5-5-5-5-|-3-3-3-3-3~~~~---|-7-7-7-7-5-5-5-5-|
E|-3-3-3-3-3~~~~---|-----------------|-----------------|-----------------|
 | . . . .                                                               |
 |                                                                       |
e|-----------------|-----------------|-3h53h53h53h5/7-5|-----------------|
b|-----------------|-----------------|-----------------|-----------------|
G|-----------------|-9-9-9-9-7-7-7-7-|-----------------|-9-9-9-9-7-7-7-7-|
D|---------5~~~~---|-x-x-x-x-x-x-x-x-|-----------------|-x-x-x-x-x-x-x-x-|
A|-5-5-5-5-5~~~~---|-7-7-7-7-5-5-5-5-|-----------------|-7-7-7-7-5-5-5-5-|
E|-3-3-3-3-3~~~~---|-----------------|-----------------|-----------------|
   . . . .    

  Until you die or finally take a chance. Say goodbye to all you've ever
  known.


Outro (3:05-3:27):

e|-----------------|-----------------|-----------------|-----------------|
b|-----------------|-----------------|-----------------|-----------------|
G|-----------------|-5-5-5-5-7-7-7-7-|-----------------|-5-5-5-5-7-7-7-7-|
D|-5-5-5-5-5-5-5-5-|-5-5-5-5-7-7-7-7-|-5-5-5-5-5-5-5-5-|-5-5-5-5-7-7-7-7-|
A|-5-5-5-5-5-5-5-5-|-3-3-3-3-5-5-5-5-|-5-5-5-5-5-5-5-5-|-3-3-3-3-5-5-5-5-|
E|-3-3-3-3-3-3-3-3-|-----------------|-3-3-3-3-3-3-3-3-|-----------------|
 |                                                                       |
 |                                                                       |
e|-----------------|-----------------|-3-0-3-0-3-0-3-5-|-3-0-3/5/7\5\3-0-|
b|-----------------|-----------------|-----------------|-----------------|
G|-----------------|-----------------|-----------------|-----------------|
D|--------%--------|--------%--------|-----------------|-----------------|
A|-----------------|-----------------|-----------------|-----------------|
E|-----------------|-----------------|-----------------|-----------------|

  Say goodbye to all you've ever known. Say goodbye to all you've ever known.

e|-----------------|-----------------|-----------------|-----------------|
b|-----------------|-----------------|-----------------|-----------------|
G|-----------------|-5-5-5-5-7-7-7-7-|-----------------|-5-5-5-5-7-7-7-7-|
D|-5-5-5-5-5-5-5-5-|-5-5-5-5-7-7-7-7-|-5-5-5-5-5-5-5-5-|-5-5-5-5-7-7-7-7-|
A|-5-5-5-5-5-5-5-5-|-3-3-3-3-5-5-5-5-|-5-5-5-5-5-5-5-5-|-3-3-3-3-5-5-5-5-|
E|-3-3-3-3-3-3-3-3-|-----------------|-3-3-3-3-3-3-3-3-|-----------------|
 |                                                                       |
 |                                                                       |
e|-3-0-3-0-3-0-3-5-|-3-0-3/5/7\5\3-0-|-3-0-3-0-3-0-3-5-|-3-0-3/5/7\5\3-0-|
b|-----------------|-----------------|-----------------|-----------------|
G|-----------------|-----------------|-----------------|-----------------|
D|-----------------|-----------------|-----------------|-----------------|
A|-----------------|-----------------|-----------------|-----------------|
E|-----------------|-----------------|-----------------|-----------------|

  Say goodbye to all you've ever known. Say goodbye to all you've ever known.

e|-----------------|
b|-----------------|
G|-----------------|
D|-5~--------------|
A|-5~--------------|
E|-3~--------------|
 |                 |
 |                 |
e|-3~--------------|
b|-----------------|
G|-----------------|
D|-----------------|
A|-----------------|
E|-----------------|


Tap to rate this tab
# A B C D E F G H I J K L M N O P Q R S T U V W X Y Z