Song name
# A B C D E F G H I J K L M N O P Q R S T U V W X Y Z

Smoke Or Fire - Sunday Pints tab

--------------------------------------------------------------------------
                        SUNDAY PINTS - jericho {rva}
--------------------------------------------------------------------------

Band: Jericho {RVA} (Now Smoke or Fire)
Album: Worker's Union (2003, Iodine Recordings)
Song: Sunday Pints

Tabbed by Kyle T.
Contact: pants_me@hotmail.com
Site: www.wqhosting.com/~ohpkyle/

Standard tuning (EADGbe)

Legend:

pm... - Palm mute
  x   - Dead note
  ~   - Let ring
  %   - Rest
  /   - Slide up
  \   - Slide down
  h   - hammer on
  *   - pinch harmonic
  b   - bend to
  r   - release to

---

Note: Contains time signature changes... or is played in something
other than 4/4 most, if not all, of the time. Octave chords in verse
aren't shown exactly as played. I've been having a hard time typing
that part out.

---

Chords used:

      F#5     E5       G5     D5 C#5
e|------------------------------------|
b|------------------------------------|
G|------11-------9-------12---7---6---|
D|---4--11---2---9---5---12---7---6---|
A|---4---9---2---7---5---10---5---4---|
E|---2-------0-------3----------------|


Intro (0:00-0:19):

e|-----------------|-----------------|-----------------|---------|
b|-----------------|-----------------|-----------------|---------|
G|-----------------|-------------7-7-|-7-7-7-7---------|---------|
D|-4--4-4-4-4-4-4--|-4--4-4-4-4--7-7-|-7-7-7-7-7-7-7-7-|-7-7-7-7-|
A|-4--4-4-4-4-4-4--|-4--4-4-4-4--5-5-|-5-5-5-5-7-7-7-7-|-7-7-7-7-|
E|-2--2-2-0-2-2-2--|-2--2-2-0-2------|---------5-5-5-5-|-5-5-5-5-|
 |                                                               |
 |                                                               |
e|-----------------|-----------------|-----------------|---------|
b|-----------------|-----------------|-----------------|---------|
G|-----------------|-----------------|-6-------6b8r6b8r|6b8r6b8r6|
D|-4--4-4-4-4-4-4--|-4--4-4-4-4------|-------7---------|---------|
A|-4--4-4-4-4-4-4--|-4--4-4-4-4--5---|-----------------|---------|
E|-2--2-2-0-2-2-2--|-2--2-2-0-2------|-----------------|---------|
                                 *     *     *

e|-----------------|-----------------|-----------------|---------|
b|-----------------|-----------------|-----------------|---------|
G|-----------------|-------------7-7-|-7-7-7-7---------|---------|
D|-4--4-4-4-4-4-4--|-4--4-4-4-4--7-7-|-7-7-7-7-7-7-7-7-|-7-7-7-7-|
A|-4--4-4-4-4-4-4--|-4--4-4-4-4--5-5-|-5-5-5-5-7-7-7-7-|-7-7-7-7-|
E|-2--2-2-0-2-2-2--|-2--2-2-0-2------|---------5-5-5-5-|-5-5-5-5-|
 |                                                               |
 |                                                               |
e|-----------------|-----------------|-----------------|---------|
b|-----------------|-----------------|-----------------|---------|
G|-----------------|-----------------|-6-------6b8r6b8r|6b8r6b8r6|
D|-4--4-4-4-4-4-4--|-4--4-4-4-4------|-------7---------|---------|
A|-4--4-4-4-4-4-4--|-4--4-4-4-4--5---|-----------------|---------|
E|-2--2-2-0-2-2-2--|-2--2-2-0-2------|-----------------|---------|
                                 *     *     *

e|-----------------|-----------------|-----------------|---------|
b|-----------------|-----------------|-----------------|---------|
G|-----------------|-------------7-7-|-7-7-7-7---------|---------|
D|-4--4-4-4-4-4-4--|-4--4-4-4-4--7-7-|-7-7-7-7-7-7-7-7-|-7-7-7-7-|
A|-4--4-4-4-4-4-4--|-4--4-4-4-4--5-5-|-5-5-5-5-7-7-7-7-|-7-7-7-7-|
E|-2--2-2-0-2-2-2--|-2--2-2-0-2------|---------5-5-5-5-|-5-5-5-5-|
 |                                                               |
 |                                                               |
e|-----------------|-----------------|-----------------|---------|
b|-----------------|-----------------|-----------------|---------|
G|-----------------|-----------------|-6-------6b8r6b8r|6b8r6b8r6|
D|-4--4-4-4-4-4-4--|-4--4-4-4-4------|-------7---------|---------|
A|-4--4-4-4-4-4-4--|-4--4-4-4-4--5---|-----------------|---------|
E|-2--2-2-0-2-2-2--|-2--2-2-0-2------|-----------------|---------|
                                 *     *     *

e|-----------------|-----------------|-----------------|---------|
b|-----------------|-----------------|-----------------|---------|
G|-----------------|-------------7-7-|-7-7-7-7-9-9-9-9-|-9-9-9-9-|
D|-4--4-4-4-4-4-4--|-4--4-4-4-4--7-7-|-7-7-7-7-x-x-x-x-|-x-x-x-x-|
A|-4--4-4-4-4-4-4--|-4--4-4-4-4--5-5-|-5-5-5-5-7-7-7-7-|-7-7-7-7-|
E|-2--2-2-0-2-2-2--|-2--2-2-0-2------|-----------------|---------|
 |                                                               |
 |                                                               |
e|-----------------|-----------------|-----------------|---------|
b|-----------------|-----------------|-----------------|---------|
G|-----------------|-----------------|-6-------6--7/9--|-9-9/14~~|
D|-4--4-4-4-4-4-4--|-4--4-4-4-4------|-------7---------|---------|
A|-4--4-4-4-4-4-4--|-4--4-4-4-4--5---|-----------------|---------|
E|-2--2-2-0-2-2-2--|-2--2-2-0-2------|-----------------|---------|
                                 *     *     *


Verse (0:19-0:38):

e|-----------------|-----------------|-----------------|---------|
b|-----------------|-----------------|-----------------|---------|
G|------------6--6-|-6-6-6-7--7-7--7-|-7-7-7-7-7-7-7-7-|-7-7-7-7-|
D|-7--7-7-7-7-6--6-|-6-6-6-7--7-7--7-|-7-7-7-7-7-7-7-7-|-7-7-7-7-|
A|-7--7-7-7-7-4--4-|-4-4-4-5--5-5--5-|-5-5-5-5-5-5-5-5-|-5-5-5-5-|
E|-5--5-5-5-5------|-----------------|-----------------|---------|
 |                                                               |
 |                                                               |
e|-----------------|-----------------|-----------------|---------|
b|-----------------|-----------------|-----------------|---------|
G|------------6--6-|-6-6-6-9--9-9-7--|--7-7-9--9\7--9\7|-9\7-9\7-|
D|-7--7-7-7-7-6--6-|-6-6-6-x--x-x-x--|--x-x-x--x-x--x-x|-x-x-x-x-|
A|-7--7-7-7-7-4--4-|-4-4-4-7--7-7-5--|--5-5-7--7\5--7\5|-7\5-7\5-|
E|-5--5-5-5-5------|-----------------|-----------------|---------|

  You're too much for me to take today.

e|-----------------|-----------------|-----------------|---------|
b|-----------------|-----------------|-----------------|---------|
G|------------9--9-|-9-9-9-7--7-7--7-|-7-7-7-7-7-7-7-7-|-7-7-7-7-|
D|-4--4-4-4-4-9--9-|-9-9-9-7--7-7--7-|-7-7-7-7-7-7-7-7-|-7-7-7-7-|
A|-4--4-4-4-4-7--7-|-7-7-7-5--5-5--5-|-5-5-5-5-5-5-5-5-|-5-5-5-5-|
E|-2--2-2-2-2------|-----------------|-----------------|---------|
 |                                                               |
 |                                                               |
e|-----------------|-----------------|-----------------|---------|
b|-----------------|-----------------|-----------------|---------|
G|------------9--9-|-9-9-9-9--9-9-7--|--7-7-9--9\7--9\7|-9\7-9\7-|
D|-4--4-4-4-4-9--9-|-9-9-9-x--x-x-x--|--x-x-x--x-x--x-x|-x-x-x-x-|
A|-4--4-4-4-4-7--7-|-7-7-7-7--7-7-5--|--5-5-7--7\5--7\5|-7\5-7\5-|
E|-2--2-2-2-2------|-----------------|-----------------|---------|

  So I'm sitting in a bar downtown with friends.

e|-----------------|-----------------|-----------------|---------|
b|-----------------|-----------------|-----------------|---------|
G|------------6--6-|-6-6-6-7--7-7--7-|-7-7-7-7-7-7-7-7-|-7-7-7-7-|
D|-7--7-7-7-7-6--6-|-6-6-6-7--7-7--7-|-7-7-7-7-7-7-7-7-|-7-7-7-7-|
A|-7--7-7-7-7-4--4-|-4-4-4-5--5-5--5-|-5-5-5-5-5-5-5-5-|-5-5-5-5-|
E|-5--5-5-5-5------|-----------------|-----------------|---------|
 |                                                               |
 |                                                               |
e|-----------------|-----------------|-----------------|---------|
b|-----------------|-----------------|-----------------|---------|
G|------------6--6-|-6-6-6-9--9-9-7--|--7-7-9--9\7--9\7|-9\7-9\7-|
D|-7--7-7-7-7-6--6-|-6-6-6-x--x-x-x--|--x-x-x--x-x--x-x|-x-x-x-x-|
A|-7--7-7-7-7-4--4-|-4-4-4-7--7-7-5--|--5-5-7--7\5--7\5|-7\5-7\5-|
E|-5--5-5-5-5------|-----------------|-----------------|---------|

  And here's to us: at least we give a damn...

e|-----------------|-----------------|-----------------|-----------------|
b|-----------------|-----------------|-----------------|-----------------|
G|1111111111111111-|-9-9-9-9-9-9-9-9-|-7-7-7-7-7-7-7-7-|-7-7-7-7-7-7-7-7-|
D|-x-x-x-x-x-x-x-x-|-x-x-x-x-x-x-x-x-|-x-x-x-x-x-x-x-x-|-x-x-x-x-x-x-x-x-|
A|-9-9-9-9-9-9-9-9-|-7-7-7-7-7-7-7-7-|-5-5-5-5-5-5-5-5-|-5-5-5-5-5-5-5-5-|
E|-----------------|-----------------|-----------------|-----------------|
 |                                                                       |
 |                                             (too hard to type out!)   |
e|-----------------|-----------------|-----------------|-----------------|
b|-----------------|-----------------|-----------------|-----------------|
G|1111111111111111-|-9-9-9-9-9-9-9-9-|-7-7-7-7-9--9-9-7|-7-7/9-9/7-9/7/9-|
D|-x-x-x-x-x-x-x-x-|-x-x-x-x-x-x-x-x-|-x-x-x-x-x--x-x-x|-x-x-x-x-x-x-x-x-|
A|-9-9-9-9-9-9-9-9-|-7-7-7-7-7-7-7-7-|-5-5-5-5-7--7-7-5|-5-5/7-7/5-7/5/7-|
E|-----------------|-----------------|-----------------|-----------------|

  ...to take the time to examine our fucked up lives.


Post Verse (0:38-0:58):

e|-----------------|-----------------|-----------------|---------|
b|-----------------|-----------------|-----------------|---------|
G|-----------------|-------------7-7-|-7-7-7-7---------|---------|
D|-4--4-4-4-4-4-4--|-4--4-4-4-4--7-7-|-7-7-7-7-7-7-7-7-|-7-7-7-7-|
A|-4--4-4-4-4-4-4--|-4--4-4-4-4--5-5-|-5-5-5-5-7-7-7-7-|-7-7-7-7-|
E|-2--2-2-0-2-2-2--|-2--2-2-0-2------|---------5-5-5-5-|-5-5-5-5-|
 |                                                               |
 |                                                               |
e|-----------------|-----------------|-----------------|---------|
b|-----------------|-----------------|-----------------|---------|
G|-----------------|-----------------|-6-------6b8r6b8r|6b8r6b8r6|
D|-4--4-4-4-4-4-4--|-4--4-4-4-4------|-------7---------|---------|
A|-4--4-4-4-4-4-4--|-4--4-4-4-4--5---|-----------------|---------|
E|-2--2-2-0-2-2-2--|-2--2-2-0-2------|-----------------|---------|
                                 *     *     *
  And it's never too late to be what you want to be.

e|-----------------|-----------------|-----------------|---------|
b|-----------------|-----------------|-----------------|---------|
G|-----------------|-------------7-7-|-7-7-7-7---------|---------|
D|-4--4-4-4-4-4-4--|-4--4-4-4-4--7-7-|-7-7-7-7-7-7-7-7-|-7-7-7-7-|
A|-4--4-4-4-4-4-4--|-4--4-4-4-4--5-5-|-5-5-5-5-7-7-7-7-|-7-7-7-7-|
E|-2--2-2-0-2-2-2--|-2--2-2-0-2------|---------5-5-5-5-|-5-5-5-5-|
 |                                                               |
 |                                                               |
e|-----------------|-----------------|-----------------|---------|
b|-----------------|-----------------|-----------------|---------|
G|-----------------|-----------------|-6-------6b8r6b8r|6b8r6b8r6|
D|-4--4-4-4-4-4-4--|-4--4-4-4-4------|-------7---------|---------|
A|-4--4-4-4-4-4-4--|-4--4-4-4-4--5---|-----------------|---------|
E|-2--2-2-0-2-2-2--|-2--2-2-0-2------|-----------------|---------|
                                 *     *     *
  It's the only consolation I can give.

e|-----------------|-----------------|-----------------|---------|
b|-----------------|-----------------|-----------------|---------|
G|-----------------|-------------7-7-|-7-7-7-7---------|---------|
D|-4--4-4-4-4-4-4--|-4--4-4-4-4--7-7-|-7-7-7-7-7-7-7-7-|-7-7-7-7-|
A|-4--4-4-4-4-4-4--|-4--4-4-4-4--5-5-|-5-5-5-5-7-7-7-7-|-7-7-7-7-|
E|-2--2-2-0-2-2-2--|-2--2-2-0-2------|---------5-5-5-5-|-5-5-5-5-|
 |                                                               |
 |                                                               |
e|-----------------|-----------------|-----------------|---------|
b|-----------------|-----------------|-----------------|---------|
G|-----------------|-----------------|-6-------6b8r6b8r|6b8r6b8r6|
D|-4--4-4-4-4-4-4--|-4--4-4-4-4------|-------7---------|---------|
A|-4--4-4-4-4-4-4--|-4--4-4-4-4--5---|-----------------|---------|
E|-2--2-2-0-2-2-2--|-2--2-2-0-2------|-----------------|---------|
                                 *     *     *
  Yet somehow  we learn to hide behind a smile,

e|-----------------|-----------------|-----------------|---------|
b|-----------------|-----------------|-----------------|---------|
G|-----------------|-------------7-7-|-7-7-7-7-9-9-9-9-|-9-9-9-9-|
D|-4--4-4-4-4-4-4--|-4--4-4-4-4--7-7-|-7-7-7-7-x-x-x-x-|-x-x-x-x-|
A|-4--4-4-4-4-4-4--|-4--4-4-4-4--5-5-|-5-5-5-5-7-7-7-7-|-7-7-7-7-|
E|-2--2-2-0-2-2-2--|-2--2-2-0-2------|-----------------|---------|
 |                                                               |
 |                                                               |
e|-----------------|-----------------|-----------------|---------|
b|-----------------|-----------------|-----------------|---------|
G|-----------------|-----------------|-6-------6--7/9--|-9-9/14~~|
D|-4--4-4-4-4-4-4--|-4--4-4-4-4------|-------7---------|---------|
A|-4--4-4-4-4-4-4--|-4--4-4-4-4--5---|-----------------|---------|
E|-2--2-2-0-2-2-2--|-2--2-2-0-2------|-----------------|---------|
                                 *     *     *
  and keep it all inside.


Verse (0:58-1:18):

e|-----------------|-----------------|-----------------|---------|
b|-----------------|-----------------|-----------------|---------|
G|------------6--6-|-6-6-6-7--7-7--7-|-7-7-7-7-7-7-7-7-|-7-7-7-7-|
D|-7--7-7-7-7-6--6-|-6-6-6-7--7-7--7-|-7-7-7-7-7-7-7-7-|-7-7-7-7-|
A|-7--7-7-7-7-4--4-|-4-4-4-5--5-5--5-|-5-5-5-5-5-5-5-5-|-5-5-5-5-|
E|-5--5-5-5-5------|-----------------|-----------------|---------|
 |                                                               |
 |                                                               |
e|-----------------|-----------------|-----------------|---------|
b|-----------------|-----------------|-----------------|---------|
G|------------6--6-|-6-6-6-9--9-9-7--|--7-7-9--9\7--9\7|-9\7-9\7-|
D|-7--7-7-7-7-6--6-|-6-6-6-x--x-x-x--|--x-x-x--x-x--x-x|-x-x-x-x-|
A|-7--7-7-7-7-4--4-|-4-4-4-7--7-7-5--|--5-5-7--7\5--7\5|-7\5-7\5-|
E|-5--5-5-5-5------|-----------------|-----------------|---------|

  And you're too much for me to take today.

e|-----------------|-----------------|-----------------|---------|
b|-----------------|-----------------|-----------------|---------|
G|------------9--9-|-9-9-9-7--7-7--7-|-7-7-7-7-7-7-7-7-|-7-7-7-7-|
D|-4--4-4-4-4-9--9-|-9-9-9-7--7-7--7-|-7-7-7-7-7-7-7-7-|-7-7-7-7-|
A|-4--4-4-4-4-7--7-|-7-7-7-5--5-5--5-|-5-5-5-5-5-5-5-5-|-5-5-5-5-|
E|-2--2-2-2-2------|-----------------|-----------------|---------|
 |                                                               |
 |                                                               |
e|-----------------|-----------------|-----------------|---------|
b|-----------------|-----------------|-----------------|---------|
G|------------9--9-|-9-9-9-9--9-9-7--|--7-7-9--9\7--9\7|-9\7-9\7-|
D|-4--4-4-4-4-9--9-|-9-9-9-x--x-x-x--|--x-x-x--x-x--x-x|-x-x-x-x-|
A|-4--4-4-4-4-7--7-|-7-7-7-7--7-7-5--|--5-5-7--7\5--7\5|-7\5-7\5-|
E|-2--2-2-2-2------|-----------------|-----------------|---------|

  So I'm sitting in a bar with my head in my hands.

e|-----------------|-----------------|-----------------|---------|
b|-----------------|-----------------|-----------------|---------|
G|------------6--6-|-6-6-6-7--7-7--7-|-7-7-7-7-7-7-7-7-|-7-7-7-7-|
D|-7--7-7-7-7-6--6-|-6-6-6-7--7-7--7-|-7-7-7-7-7-7-7-7-|-7-7-7-7-|
A|-7--7-7-7-7-4--4-|-4-4-4-5--5-5--5-|-5-5-5-5-5-5-5-5-|-5-5-5-5-|
E|-5--5-5-5-5------|-----------------|-----------------|---------|
 |                                                               |
 |                                                               |
e|-----------------|-----------------|-----------------|---------|
b|-----------------|-----------------|-----------------|---------|
G|------------6--6-|-6-6-6-9--9-9-7--|--7-7-9--9\7--9\7|-9\7-9\7-|
D|-7--7-7-7-7-6--6-|-6-6-6-x--x-x-x--|--x-x-x--x-x--x-x|-x-x-x-x-|
A|-7--7-7-7-7-4--4-|-4-4-4-7--7-7-5--|--5-5-7--7\5--7\5|-7\5-7\5-|
E|-5--5-5-5-5------|-----------------|-----------------|---------|

  And here's to us, the medicated generations.

e|-----------------|-----------------|-----------------|-----------------|
b|-----------------|-----------------|-----------------|-----------------|
G|1111111111111111-|-9-9-9-9-9-9-9-9-|-7-7-7-7-7-7-7-7-|-7-7-7-7-7-7-7-7-|
D|-x-x-x-x-x-x-x-x-|-x-x-x-x-x-x-x-x-|-x-x-x-x-x-x-x-x-|-x-x-x-x-x-x-x-x-|
A|-9-9-9-9-9-9-9-9-|-7-7-7-7-7-7-7-7-|-5-5-5-5-5-5-5-5-|-5-5-5-5-5-5-5-5-|
E|-----------------|-----------------|-----------------|-----------------|
 |                                                                       |
 |                                             (too hard to type out!)   |
e|-----------------|-----------------|-----------------|-----------------|
b|-----------------|-----------------|-----------------|-----------------|
G|1111111111111111-|-9-9-9-9-9-9-9-9-|-7-7-7-7-9--9-9-7|-7-7/9-9/7-9/7/9-|
D|-x-x-x-x-x-x-x-x-|-x-x-x-x-x-x-x-x-|-x-x-x-x-x--x-x-x|-x-x-x-x-x-x-x-x-|
A|-9-9-9-9-9-9-9-9-|-7-7-7-7-7-7-7-7-|-5-5-5-5-7--7-7-5|-5-5/7-7/5-7/5/7-|
E|-----------------|-----------------|-----------------|-----------------|

  How can we help each other when we can't even help ourselves?


Solo (1:18-1:37):

e|-----------------|-----------------|-----------------|-----------------|
b|-----------------|-----------------|-----------------|-----------------|
G|-7-7-7-7-7-7-7-7-|1212121212121212-|1414141414141414-|1414141412121212-|
D|-x-x-x-x-x-x-x-x-|-x-x-x-x-x-x-x-x-|-x-x-x-x-x-x-x-x-|-x-x-x-x-x-x-x-x-|
A|-5-5-5-5-5-5-5-5-|1010101010101010-|1212121212121212-|1212121210101010-|
E|-----------------|-----------------|-----------------|-----------------|
 |                                                                       |
 |                                                                       |
e|-----------------|-----------------|-----------------|-----------------|
b|-----------------|-----------------|-----------------|-----------------|
G|-7-7-7-7-7-7-7-7-|-----------------|-----------------|-----------------|
D|-7-7-7-7-7-7-7-7-|-5-5-5-5-5-5-5-5-|-7-7-7-7-7-7-7-7-|-7-7-7-7-7-7-7-7-|
A|-5-5-5-5-5-5-5-5-|-5-5-5-5-5-5-5-5-|-7-7-7-7-7-7-7-7-|-7-7-7-7-7-7-7-7-|
E|-----------------|-3-3-3-3-3-3-3-3-|-5-5-5-5-5-5-5-5-|-5-5-5-5-5-5-5-5-|


e|-----------------|-----------------|-----------------|-----------------|
b|-----------------|-----------------|-----------------|-----------------|
G|-7-7-7-7-7-7-7-7-|1212121212121212-|1414141414141414-|1414141412121212-|
D|-x-x-x-x-x-x-x-x-|-x-x-x-x-x-x-x-x-|-x-x-x-x-x-x-x-x-|-x-x-x-x-x-x-x-x-|
A|-5-5-5-5-5-5-5-5-|1010101010101010-|1212121212121212-|1212121210101010-|
E|-----------------|-----------------|-----------------|-----------------|
 |                                                                       |
 |                                                                       |
e|-----------------|-----------------|-----------------|-----------------|
b|-----------------|-----------------|-----------------|-----------------|
G|-7-7-7-7-7-7-7-7-|-----------------|-----------------|-----------------|
D|-7-7-7-7-7-7-7-7-|-5-5-5-5-5-5-5-5-|-7-7-7-7-7-7-7-7-|-7-7-7-7-7-7-7-7-|
A|-5-5-5-5-5-5-5-5-|-5-5-5-5-5-5-5-5-|-7-7-7-7-7-7-7-7-|-7-7-7-7-7-7-7-7-|
E|-----------------|-3-3-3-3-3-3-3-3-|-5-5-5-5-5-5-5-5-|-5-5-5-5-5-5-5-5-|


e|-----------------|-----------------|-----------------|-----------------|
b|-----------------|-----------------|-----------------|-----------------|
G|-7-7-7-7-7-7-7-7-|1212121212121212-|1414141414141414-|1414141412121212-|
D|-x-x-x-x-x-x-x-x-|-x-x-x-x-x-x-x-x-|-x-x-x-x-x-x-x-x-|-x-x-x-x-x-x-x-x-|
A|-5-5-5-5-5-5-5-5-|1010101010101010-|1212121212121212-|1212121210101010-|
E|-----------------|-----------------|-----------------|-----------------|
 |                                                                       |
 |                                                                       |
e|-----------------|-----------------|-----------------|-----------------|
b|-----------------|-----------------|-----------------|-----------------|
G|-7-7-7-7-7-7-7-7-|-----------------|-----------------|-----------------|
D|-7-7-7-7-7-7-7-7-|-5-5-5-5-5-5-5-5-|-7-7-7-7-7-7-7-7-|-7-7-7-7-7-7-7-7-|
A|-5-5-5-5-5-5-5-5-|-5-5-5-5-5-5-5-5-|-7-7-7-7-7-7-7-7-|-7-7-7-7-7-7-7-7-|
E|-----------------|-3-3-3-3-3-3-3-3-|-5-5-5-5-5-5-5-5-|-5-5-5-5-5-5-5-5-|


e|-----------------|-----------------|-----------------|-----------------|
b|-----------------|-----------------|-----------------|-----------------|
G|-7-7-7-7-7-7-7-7-|1212121212121212-|1414141414141414-|1414141412121212-|
D|-x-x-x-x-x-x-x-x-|-x-x-x-x-x-x-x-x-|-x-x-x-x-x-x-x-x-|-x-x-x-x-x-x-x-x-|
A|-5-5-5-5-5-5-5-5-|1010101010101010-|1212121212121212-|1212121210101010-|
E|-----------------|-----------------|-----------------|-----------------|
 |                                                                       |
 |                                                                       |
e|-----------------|-----------------|-----------------|-----------------|
b|-----------------|-----------------|-----------------|-----------------|
G|-7-7-7-7-7-7-7-7-|-----------------|-----------------|-----------------|
D|-7-7-7-7-7-7-7-7-|-5-5-5-5-5-5-5-5-|-7-7-7-7-7-7-7-7-|-7-7-7-7-7-7-7-7-|
A|-5-5-5-5-5-5-5-5-|-5-5-5-5-5-5-5-5-|-7-7-7-7-7-7-7-7-|-7-7-7-7-7-7-7-7-|
E|-----------------|-3-3-3-3-3-3-3-3-|-5-5-5-5-5-5-5-5-|-5-5-5-5-5-5-5-5-|


Pre Chorus (1:38-1:40):

e|-----------------|------------|
b|-----------------|------------|
G|-----------------|------------|
D|-4--4-4-4-4-4-4--|-4--4-4-4-4-|
A|-4--4-4-4-4-4-4--|-4--4-4-4-4-|
E|-2--2-2-0-2-2-2--|-2--2-2-0-2-|


Chorus (1:40-2:00):

e|-----------------|-----------------|-----------------|-----------------|
b|-----------------|-----------------|-----------------|-----------------|
G|-7-7-7-7-7-7-7-7-|-----------------|-----------------|-----------------|
D|-7-7-7-7-7-7-7-7-|-4-4-4-4-4-4-4-4-|-2-2-2-2-2-2-2-2-|-5--4\2--5--4\2--|
A|-5-5-5-5-5-5-5-5-|-4-4-4-4-4-4-4-4-|-2-2-2-2-2-2-2-2-|-5--4\2--5--4\2--|
E|-----------------|-2-2-2-2-2-2-2-2-|-0-0-0-0-0-0-0-0-|-3--2\0--3--2\0--|
 |                                                                       |
 |                                                                       |
e|-----------------|-----------------|-----------------|-----------------|
b|-----------------|-----------------|-----------------|-----------------|
G|-7-7-7-7-7-7-7-7-|1111111111111111-|-9-9-9-9-9-9-9-9-|12-11\9-12-11\9--|
D|-7-7-7-7-7-7-7-7-|1111111111111111-|-9-9-9-9-9-9-9-9-|-x--x-x--x--x-x--|
A|-5-5-5-5-5-5-5-5-|-9-9-9-9-9-9-9-9-|-7-7-7-7-7-7-7-7-|10--9\7-10--9\7--|
E|-----------------|-----------------|-----------------|-----------------|

  Forget about everything you've ever learned about our relationship and be
  a companion.

e|-----------------|-----------------|-----------------|-----------------|
b|-----------------|-----------------|-----------------|-----------------|
G|-7-7-7-7-7-7-7-7-|-----------------|-----------------|-----------------|
D|-7-7-7-7-7-7-7-7-|-4-4-4-4-4-4-4-4-|-2-2-2-2-2-2-2-2-|-5--4\2--5--4\2--|
A|-5-5-5-5-5-5-5-5-|-4-4-4-4-4-4-4-4-|-2-2-2-2-2-2-2-2-|-5--4\2--5--4\2--|
E|-----------------|-2-2-2-2-2-2-2-2-|-0-0-0-0-0-0-0-0-|-3--2\0--3--2\0--|
 |                                                                       |
 |                                                                       |
e|-----------------|-----------------|-----------------|-----------------|
b|-----------------|-----------------|-----------------|-----------------|
G|-7-7-7-7-7-7-7-7-|1111111111111111-|-9-9-9-9-9-9-9-9-|12-11\9-12-11\9--|
D|-7-7-7-7-7-7-7-7-|1111111111111111-|-9-9-9-9-9-9-9-9-|-x--x-x--x--x-x--|
A|-5-5-5-5-5-5-5-5-|-9-9-9-9-9-9-9-9-|-7-7-7-7-7-7-7-7-|10--9\7-10--9\7--|
E|-----------------|-----------------|-----------------|-----------------|

  Forget about everything you've ever learned about our relationship and be
  a friend.

e|-----------------|-----------------|-----------------|-----------------|
b|-----------------|-----------------|-----------------|-----------------|
G|-7-7-7-7-7-7-7-7-|-----------------|-----------------|-----------------|
D|-7-7-7-7-7-7-7-7-|-4-4-4-4-4-4-4-4-|-2-2-2-2-2-2-2-2-|-5--4\2--5--4\2--|
A|-5-5-5-5-5-5-5-5-|-4-4-4-4-4-4-4-4-|-2-2-2-2-2-2-2-2-|-5--4\2--5--4\2--|
E|-----------------|-2-2-2-2-2-2-2-2-|-0-0-0-0-0-0-0-0-|-3--2\0--3--2\0--|
 |                                                                       |
 |                                                                       |
e|-----------------|-----------------|-----------------|-----------------|
b|-----------------|-----------------|-----------------|-----------------|
G|-7-7-7-7-7-7-7-7-|1111111111111111-|-9-9-9-9-9-9-9-9-|12-11\9-12-11\9--|
D|-7-7-7-7-7-7-7-7-|1111111111111111-|-9-9-9-9-9-9-9-9-|-x--x-x--x--x-x--|
A|-5-5-5-5-5-5-5-5-|-9-9-9-9-9-9-9-9-|-7-7-7-7-7-7-7-7-|10--9\7-10--9\7--|
E|-----------------|-----------------|-----------------|-----------------|

  Forget about everything you've ever learned about our relationship and be
  a companion.

e|-----------------|-----------------|-----------------|-----------------|
b|-----------------|-----------------|-----------------|-----------------|
G|-7-7-7-7-7-7-7-7-|-----------------|-----------------|-----------------|
D|-7-7-7-7-7-7-7-7-|-4-4-4-4-4-4-4-4-|-2-2-2-2-2-2-2-2-|-5--4\2--5--4\2--|
A|-5-5-5-5-5-5-5-5-|-4-4-4-4-4-4-4-4-|-2-2-2-2-2-2-2-2-|-5--4\2--5--4\2--|
E|-----------------|-2-2-2-2-2-2-2-2-|-0-0-0-0-0-0-0-0-|-3--2\0--3--2\0--|
 |                                                                       |
 |                                                                       |
e|-----------------|-----------------|-----------------|-----------------|
b|-----------------|-----------------|-----------------|-----------------|
G|-7-7-7-7-7-7-7-7-|1111111111111111-|-9-9-9-9-9-9-9-9-|12-11\9-12-11\9--|
D|-7-7-7-7-7-7-7-7-|1111111111111111-|-9-9-9-9-9-9-9-9-|-x--x-x--x--x-x--|
A|-5-5-5-5-5-5-5-5-|-9-9-9-9-9-9-9-9-|-7-7-7-7-7-7-7-7-|10--9\7-10--9\7--|
E|-----------------|-----------------|-----------------|-----------------|

  Forget about everything you've ever learned about our relationship and be
  a friend.


Outro (2:00-2:15):

e|-----------------|-----------------|-----------------|-----------------|
b|-----------------|-----------------|-----------------|-----------------|
G|-7-7-------------|-----------------|-----------------|-----------------|
D|-7-7------%------|-4-4------%------|-2-2------%------|-5--4\2--5--4\2--|
A|-5-5-------------|-4-4-------------|-2-2-------------|-5--4\2--5--4\2--|
E|-----------------|-2-2-------------|-0-0-------------|-3--2\0--3--2\0--|
 |                                                                       |
 |                                                                       |
e|-----------------|-----------------|-----------------|-----------------|
b|-----------------|-----------------|-----------------|-----------------|
G|-7-7-------------|1111-------------|-9-9-------------|12-11\9-12-11\9--|
D|-7-7------%------|1111------%------|-9-9------%------|-x--x-x--x--x-x--|
A|-5-5-------------|-9-9-------------|-7-7-------------|10--9\7-10--9\7--|
E|-----------------|-----------------|-----------------|-----------------|

  Forget about everything you've ever learned about our relationship and be
  a companion.

e|-----------------|-----------------|-----------------|-----------------|
b|-----------------|-----------------|-----------------|-----------------|
G|-7-7-------------|-----------------|-----------------|-----------------|
D|-7-7------%------|-4-4------%------|-2-2------%------|-5--4\2--5--4\2--|
A|-5-5-------------|-4-4-------------|-2-2-------------|-5--4\2--5--4\2--|
E|-----------------|-2-2-------------|-0-0-------------|-3--2\0--3--2\0--|
 |                                                                       |
 |                                                                       |
e|-----------------|-----------------|-----------------|-----------------|
b|-----------------|-----------------|-----------------|-----------------|
G|-7-7-------------|1111-------------|-9-9-------------|12-11\9-12-11\9--|
D|-7-7------%------|1111------%------|-9-9------%------|-x--x-x--x--x-x--|
A|-5-5-------------|-9-9-------------|-7-7-------------|10--9\7-10--9\7--|
E|-----------------|-----------------|-----------------|-----------------|

  Forget about everything you've ever learned about our relationship and be
  a friend.

e|-----------------|
b|-----------------|
G|-7---------------|
D|-7---------------|
A|-5---------------|
E|-----------------|
 |                 |
 |                 |
e|-----------------|
b|-----------------|
G|-7---------------|
D|-x---------------|
A|-5---------------|
E|-----------------|
Tap to rate this tab
 
# A B C D E F G H I J K L M N O P Q R S T U V W X Y Z