Song name
# A B C D E F G H I J K L M N O P Q R S T U V W X Y Z

Smoke Or Fire - Patty Hearst Syndrome tab

This Sinking Ship is an awesome new album, and this is probably the best song off of
i've got this right...i only tabbed one guitar(except for the chorus), cause i only play it
one guitar, so yeah...its not very hard, and i know the intro and solo are 100% correct, 
im not sure about some of the chorus and bridge parts...


Intro x2

e--------------------------------------I    ------------------------------|
b--------------------------------------I    ------------------------------|
g------------17-----------17-----------I x3 ------------17------------17~-|
d----14-15-14-----14-15-14-------------I    ----14-15-14-----14-15-15-----| x1
a--15-----------15-----------15-17-15--I    --15-----------15-------------|
e--------------------------------------I    ------------------------------|


Verse x2 (palm muted)

e--------------------------------------|
b--------------------------------------|
g--10-------9-------5-------7----------|
d--10-(x8)--9-(x8)--5-(x8)--7--(x8)----|
a---8-------7-------3-------5----------|
e--------------------------------------|


Pre-Chorus x2

e----------------------------------|
b----------------------------------|
g-1010x1010--55x55-----------------|
d-1010x1010--55x55--77x77--55x555--|
a--8-8x-8-8--33x33--77x77--55x555--|
e-------------------55x55--33x333--|


Chorus x2

e----------------------------------|
b----------------------------------|
g-10-------9-------5-------7-------|
d-10-(x8)--9-(x8)--5-(x8)--7-(x8)--| or
a--8-------7-------3-------5-------|
e----------------------------------|

e---------------------------|
b---------------------------|
g--5------------------------|
d--5-(x8)--7-------5--------| (i think this would be
a--3-------7-(x8)--5-(x16)--|   the other guitar part)
e----------5-------3--------|


Verse x2

Pre-Chorus x2

Chorus x2


Bridge x2 (same as pre-chorus)

e---------------------------------|
b---------------------------------|
g-1010x1010--55x55----------------|
d-1010x1010--55x55--77x77--55x55--|
a--8-8x-8-8--33x33--77x77--55x55--|
e-------------------55x55--33x33--|


Break Down x1

e-----------------------------------------------------|
b-----------------------------------------------------|
g------------------555555--999999---------------------|
d--777777--555555--555555--999999--777777--555555-3~--|
a--777777--555555--333333--777777--777777--555555-3~--|
e--555555--333333------------------555555--333333-1~--|


Solo

e------------------------------------------------------------|I
b------------------------------------------------------------|I
g------------------------------------------------------------|I
d-----10-10---10-10---10--7-7-7-8-7------7-7-7-8-7-------I---| (x2)
a--8-8-----8-8-----8-8--------------10-8-----------10-8------|I
e------------------------------------------------------------|I

e-------------------------------------------------------------------------|I
b-------------------------------------------------------------------------|I
g-------------------------------------------------------------------------|I
d------17-17------17-----17--14-14-14-15-14------14-14-14-15-14-------I---| (x2)
a-15-15------15-15--15-15------------------17-15----------------17-15-----|I
e-------------------------------------------------------------------------|I


Chorus x4

End on

e-------|
b-------|
g--10---|
d--10~~-
a---8~~-
e-------


Thats about it, I didnt tab out the solo thing in the background of the last chorus, but
dont need it unless you have 2 guitars...hopefully this is enough, let me know if
needs changing...have fun
Tap to rate this tab
# A B C D E F G H I J K L M N O P Q R S T U V W X Y Z