Song name
# A B C D E F G H I J K L M N O P Q R S T U V W X Y Z

Smoke Or Fire - Breadwinner tab

Intro (after bass intro)

---------------------------------------------------------|
-------------------------4 times then--------------------|
-----------66------------------------------7------77/9---|
-44---77---66--7----999--------------------7------77/9---|
-44---77---44--7----999--------------------5------55/7---|
-22---55-------5----777----------------------------------|  Repeat

Verse ( * muted)

---------------------------------------------------------|
---------------------------------------------------------|
----------6-6-66-----------666666666666------------------|
-444--7---6-6-66--444--7---666666666666------------------|
-444--7---4-4-44--444--7---444444444444------------------|
-222--5-----------222--5---------------------------------|
 ***  *           ***  *   ************
---------------------------------------------------------|
---------------------------------------------------------|
----------666666666666--------------6-6--66--------------|
-444--7---666666666666-----444--7---6-6--66--------------|
-444--7---444444444444-----444--7---4-4--44--------------|
-222--5--------------------222--5------------------------|
 ***  *   ************     ***  *

----------------------------------------------------------|
----------------------4 times then------------------------|
----------66--6-666-----------------77777777777777/9------|
-44---7---66--6-666-----------------77777777777777/9------|
-44---7---44--4-444-----------------55555555555555/7------|
-22---5---------------------------------------------------|Repeat w/o slide at end

Pre-Chorus

---------------------------------------------------------|
---------------------------------------------------------|
---------------------------------------------------------|
--7777777---4444444---2222222222222----------------------|
--7777777---4444444---2222222222222----------------------|
--5555555---2222222---0000000000000----------------------|  Repeat

Chorus

---------------------------------------------------------|
---------------------------------------------------------|
------------------666666--777777-------------------------|
--777777--999999--666666--777777-------------------------|
--777777--999999--444444--555555-------------------------|
--555555--777777-----------------------------------------|  Repeat

Solo

----------------------------------------------------|
--777777777777552222--2h3p2--55---------------------|
---------------------------------444----------------|
---------------------------------------444444-------|
----------------------------------------------------|
----------------------------------------------------|  Repeat then

-------------|
-------------|
---7--77/9---|
---7--77/9---|
---5--55/7---|
-------------|

Verse 2

------------------------------------------------------------|
-------------------------4 times then-----------------------|
----11-1111-11-1111--------------------7777777777777/9------|
----11-1111-11-1111-1111---------------7777777777777/9------|
-----9--9-9--9--9-9-1111---------------5555555555555/7------|
---------------------9-9------------------------------------|

-----------------------------------------------------------|
----------------------4 times then-------------------------|
----11-xx--11-xx--------------------777777777777777--------|
----11-xx--11-xx-1111---------------777777777777777--------|
-----9-xx---9-xx-1111---------------555555555555555--------|
------------------9-9--------------------------------------|

Pre Chorus
Chorus

Followed by this little last add on to the 2nd chorus

-----------------------------------------------------|
------------------------------------------4 times----|
---777777--111111111111---999999999999---------------|
---777777--111111111111---999999999999---------------|
---555555---9-9-9-9-9-9---777777777777---------------|
-----------------------------------------------------|

Solo again and finish with

--------------------------------|
------------------4 times-------|
--------6-----------------------|
--4--7--6--7--9-----------------|
--4--7--4--7--9-----------------|
--2--5-----5--7-----------------|

That's it. Pretty simple. Definitely the best song from This Sinking Ship. Not sure if 
strumming is exact everywhere. But it's pretty close along with the solo. This is my 
tab so let me know what you think and add any corrections.
mikeyeatworld13@aol.com
Tap to rate this tab
# A B C D E F G H I J K L M N O P Q R S T U V W X Y Z