Song name
# A B C D E F G H I J K L M N O P Q R S T U V W X Y Z

Smokey Wambas - Justins Music tab

Band: The Smokey Wambas
Song: Justin's Music


Verse- Guitar 1        (4x)
------------------------------------------------------------------------------------|
------------------------------------------------------------------------------------|
------------------------------------------------------------------------------------|
-----0-2-------0-3------------------------------------------------------------------|
---0---------0----------------------------------------------------------------------|
-0---------0------------------------------------------------------------------------|

Chrous- Both Guitars
--------------------------------------------------------------------------------------------------|
--------------------------------------------------------------------------------------------------|
--------------------------------------------------------------------------------------------------|
--5-5-5-5/9-9-9-9-9-9---5-5-5-5/9-9-9-9-9-9---5-5-5-5/9-9-9-9-9-9---8-8--7-7--5-------------------|
--5-5-5-5/9-9-9-9-9-9---5-5-5-5/9-9-9-9-9-9---5-5-5-5/9-9-9-9-9-9---8-8--7-7--5---Guitar-2--------|
--3-3-3-3/7-7-7-7-7-7---3-3-3-3/7-7-7-7-7-7---3-3-3-3/7-7-7-7-9-9---6-6--5-5--3---Let Ring..------|

ORDER

Verse 4X
Chrous
Verse 4X
Chrous 2X/3X

Lyrics

My name is Pedro
Meda
My name is Justin
Meda
My Name is Pedro
Meda
My Name is Justin
Justin.. Justin.. Justin's Music

...:::Chrous:::...

Are You Pedro?
Si
Are You Justin?
Si
Is this Pedro's Music?
No
Is it Justin's Music?
Siiii

...:::Chrous:::...
::::::Chrous::::::

THE END
Tap to rate this tab
# A B C D E F G H I J K L M N O P Q R S T U V W X Y Z