Song name
# A B C D E F G H I J K L M N O P Q R S T U V W X Y Z

Smokie - Wild Wild Angels tab

Intro 

let ring----------------------------------------------------------------
e|--------0--2---------------0--2--------------0--2------3-2--0-2-2-----|
B|-----3--------3---------3--------3--------3--------3---3-3--3-3-3-----|
G|-2------------------2-----------------2---------------------2-2-2-----|
D|-0------------------0-----------------0-------------------------0-----|
A|----------------------------------------------------------------------|
E|----------------------------------------------------------------------| 2x

D

Verse

D
Don't talk to me of shattered dreams,
A
Of course you don't know what it means,
G                     A                   D
To live for someone else, you can't just take,
D
And when you're bitten by the truth,
A
You blame it on your mis-spent youth,
G                  A               D
You never seem to learn by your mistakes.

Chorus

G                      A          D
So don't talk to me of wild wild angels,
G         A             D
Wild wild angels on the skyways,
G               A             D                Bm
Those wild wild angels on the highways of your life,
          G            A   D         G 
'Cos it's people like you who never knew,
     D         A           G      
What wild wild angels have to face.

Verse

D
And I ain't hangin' round to see,
A
You turn on someone else like me,
          G              A             D
I'm still alive and you know the way I live,
D
But baby that's one way you'll never be,
A
Such simple things you fail to see,
   G            A                 D
You take back everything you ever give.

Chorus

G                      A          D
So don't talk to me of wild wild angels,
G         A             D
Wild wild angels on the skyways,
G               A             D                Bm
Those wild wild angels on the highways of your life,
          G            A   D         G 
'Cos it's people like you who never knew,
     D         A           G      
What wild wild angels have to face. 3x

Guitar riff second verse (But baby that's one....)

e|-15-14-12----------15-14-12--------17-15-14-------17-15-14--------------|
B|----------15----------------15--------------17-------------17-----------|
G|-------------14----------------14--------------14-------------14--------|
D|------------------------------------------------------------------------|
A|------------------------------------------------------------------------|
E|------------------------------------------------------------------------|

Tap to rate this tab
 
# A B C D E F G H I J K L M N O P Q R S T U V W X Y Z