Song name
# A B C D E F G H I J K L M N O P Q R S T U V W X Y Z

Smokie - Have You Ever Seen The Rain tab

Again you should listen to the song for the rithm...I'm also not sure hou you represent
bends in a tab but you'll figure it out...I hope. I'm currently working on a tab for
this solo in Guitar Pro format so it will be easyer to read. Until then good luck and
please tell me if I made a mistake...

This is the fingering that I find easyest, but you don't have to play on the exact
strings...use your imagination...:)

/ - slide (or bend - listen to the song)
h - hammer on
p - pull off

E/------------------------------------15/17-17-15-13----------------|
B/-----13-15-17--17p15-13-15-------------------------15h17p15-13-15-|
G/--14-----------------------14----14-------------------------------|
D/------------------------------------------------------------------|
A/------------------------------------------------------------------|
E/------------------------------------------------------------------|

E/------------------------------------13----------------------------|
B/-----13-15-17--17p15-13-15-------------17-13----------------------|
G/--14-----------------------14----14-------------------------------|
D/---------------------------------------------17-15-14-15-17-12----|
A/------------------------------------------------------------------|
E/------------------------------------------------------------------|

E/------------------------------12-13-15----------------------------|
B/-----12-13-12--12-------15/17----------15/17\15-13-15-------------|
G/-/14--------------14-12-------------------------------14----------|
D/------------------------------------------------------------------|
A/------------------------------------------------------------------|
E/------------------------------------------------------------------|

E/------------------13-12-------------------------------------------|
B/------12-13-12----------13----------------13----------------------|
G/--/14----------12----------12----------12-------------------------|
D/------------------------------15-14-15----------------------------|
A/------------------------------------------------------------------|
E/------------------------------------------------------------------|
Tap to rate this tab
# A B C D E F G H I J K L M N O P Q R S T U V W X Y Z