Song name
# A B C D E F G H I J K L M N O P Q R S T U V W X Y Z

Smokie - For A Few Dollars More tab

Help us improve GuitareTab! Take a short survey!
Artist: Smokie
Title:For a Few Dollars More
Tab by: Headache90 (Michal Nawrocki)


e|---15B---12-13-12--------------------------------|
B|------------------15~---13-15-17--13-15--13------|
G|--------------------------------------------14~--|
D|-------------------------------------------------|
A|-------------------------------------------------|
E|-------------------------------------------------|

e|--------17~~---------19~~---19~~---|
B|13~13~-------13~13~----------------|
G|-----------------------------------|
D|-----------------------------------|
A|-----------------------------------|
E|-----------------------------------|

e|19-17-15---------17----17----19----19--|
B|---------13---13----13----13----13-----|
G|---------------------------------------|
D|---------------------------------------|
A|---------------------------------------|
E|---------------------------------------|
Related for For A Few Dollars More tab