Song name
# A B C D E F G H I J K L M N O P Q R S T U V W X Y Z

Smoking Popes - Paul tab

-------------------------------------------------------------------------------
			     Paul - Smoking Popes
-------------------------------------------------------------------------------
Tabbed by: The Resolve

**I decided to tab the rest of the song because it wasn't that hard to figure out so 
it is!**

Tuning: E A D G B e


***1st Verse*** - Repeat Once

**Throughout the song the 1st verse is played with bar chords/power chords to keep the 
held down and ringing. Look at the notes and find the easiest way for your hand to keep 
the notes covered down at once while u either finger-pick it or pick it fluently with a pick.**
e|---------------------------------------------------------------------------|
B|--------------------------10--9----------------------------8---7-----------|
G|------6-----------------9-------9--------6---------------7-------7---------|
D|--------7-------9-----9-----9-----9--------7------9----7-----7-----7-------|
A|----7---------9-----7------------------7--------9----5---------------------|
E|--5---------7------------------------5--------7----------------------------|

e|---------------------------------------------------------------------------|
B|----------------------------------------10---9-----------------------------|
G|-------9----------6--6----------------9--------9---------6-----------------|
D|---------11------------------9------9------9-----9---------7--------9------|
A|----11----------7----------9-----/7--------------------7----------9--------|
E|--9-----------5----------7---------------------------5----------7----------|

e|---------------------------------------------------------------------------|
B|---------8---7----------------10--------5----------------------------------|
G|-------7-------7-----------11-------------6-------------------6--4---------|
D|-----7-----7-----7------11-----------6--------------6~---------------------|
A|--/5-----------------/9------------4--------------6--------7---------------|
E|------------------------------------------------4--------5-----------------|

e|--------------------------------------------o||
B|---------2~~0--------------------------------||
G|----------------------9---------8~~~~--------||
D|------2-------------9---------9--------------||
A|----2-------------9---------9----------------||
E|--0-------------7--------7------------------o||


***Chorus***

1st Guitar
e|---------------------------------------------------------------------------|
B|---------------------------------------------------------------------------|
G|----------4---------------4-------6---------------11-------4---------------|
D|--2-------4--x8---2-------4--x8---6--x8---7-------11--x8---4--x8-----------|
A|--0--x8---2-------0--x8---2-------4-------7--x8---9--------2---------------|
E|--0---------------0-----------------------5--------------------------------|

2nd Guitar                               **3rd time play this**
e|-----------------------------||--------------------------------------------|
B|----------------------------o||--------------------------------------------|
G|--13-/14-\13-\11-\9-\8-/9~~--||-x3--11-11-11----11-11-11--9--8~~-8-8-8-----|
D|---x---x---x---x--x--x--x----||------x--x--x-----x--x--x--x--x---x-x-x-----|
A|--11-/12-\11--\9-\7-\6-/7~~-o||------9--9--9-----9--9--9--7--6~~-6-6-6-----|
E|-----------------------------||--------------------------------------------|

e|-------------|
B|-------------|
G|--6--4-4~~~--|
D|--x--x-x~~~--|
A|--4--2-2~~~--|
E|-------------|

***2nd Verse***

**In this verse both guitars are playing the same chords but just syncopated and off 
of each other. So if you have two guitarists, listen to the song and practice playing on 
down and up beats switching between the two guitars**

e|---------------------------------------------------------------------------|
B|---------------------------------------------------------------------------|
G|--------------------9~x-9-x-9-----------------------7~x-7-x-7--------------|
D|------7------9------9~x-9-x-9---------7------9------7~x-7-x-7--------------|
A|------7------9--7-7-7~x-7-x-7---------7------9--5-5-5~x-5-x-5--------------|
E|--5-5-5--7-7-7--------------------5-5-5--7-7-7-----------------------------|
    . .    . .    . .               . .    . .    . .
e|---------------------------------------------------------------------------|
B|---------------------------------------------------------------------------|
G|---------------------------9~x-9-x-9----------------------7~x-7-x-7--------|
D|------11-----7------9------9~x-9-x-9--------7------9------7~x-7-x-7--------|
A|------11-----7------9--7-7-7~x-7-x-7--------7------9--5-5-5~x-5-x-5--------|
E|--9-9-9--5-5-5--7-7-7-------------------5-5-5--7-7-7-----------------------|
    . .    . .    . .    . .              . .    . .    . .
e|---------------------------------------------------------------------------|
B|---------------------------------------------------------------------------|
G|------11------6-------------------------------9---9------9p8~9~8~~~--------|
D|------11------6------6------7------2------9~x-9-x-9------9-9~9~9~~~--------|
A|--9-9-9---4-4-4------6------7------2------9~x-9-x-9------9-9~9~9~~~--------|
E|-----------------4-4-4--5-5-5--0-0-0--7-7-7~x-7-x-7--7-7-7-7~7~7~~~--------|
    . .     . .    . .    . .    . .    . .            . .


***Chorus***


***Solo***

Backup Chords - 2nd Guitar
e|----------------------------------------------||
B|---------------------------------------------o||
G|---------------9-------------------7-----6~---||
D|--7-7--9-9-9---9-x8---7-7--9-9-9---5-x8--4~---||
A|--7-7--9-9-9---7------7-7--9-9-9---5-----4~--o||
E|--5-5--7-7-7----------5-5--7-7-7--------------||

SOLO!
e|--------------------------------------------------------------------------||
B|---------9-10-12b14r12~~~---------10-9-----------------------------------o||
G|--8-9-11-------------------8-9-11------11-9-11b13r11p9--------------------||
D|-------------------------------------------------------11-9-9h11----------||
A|-------------------------------------------------------------------------o||
E|--------------------------------------------------------------------------||


***1st Verse***


***Chorus*** - x2 times


***Outro***

e|---------------------------------------------------------------------------|
B|---------------------------------------------------------------------------|
G|--------------------------9-9\---------------------------------------------|
D|--7-7--9-9---10-10--9--7--9-9\---------------------------------------------|
A|--7-7--9-9---10-10--9--7--7-7\---------------------------------------------|
E|--5-5--7-7---8--8---7--5---------------------------------------------------|


| .  palm mute
| /  slide up
| \  slide down
| ~  vibrato
| x  Mute note
===============================================================================

************************SMOKING POPES ARE AWESOME!!!!!!!!*********************
Tap to rate this tab
 
# A B C D E F G H I J K L M N O P Q R S T U V W X Y Z