Song name
# A B C D E F G H I J K L M N O P Q R S T U V W X Y Z

Smoking Popes - Off My Mind tab

Help us improve GuitareTab! Take a short survey!
The Smoking Popes - Off My Mind
not the best, parts can be wrong strumming too


intro clean guitar       x4
e---------------------------|
B---------------------------|
G-9-9-99-99999-6-6-66-66666-|
D-9-9-99-99999-6-6-66-66666-|
A-7-7-77-77777-4-4-44-44444-|
E-0-0-00-00000-0-0-00-00000-|

verse                    x4
e--------------------------|
B--------------------------|
G-4-4-44-44444-------------|
D-4-4-44-44444-------------|
A-2-2-22-22222---6-----7---|
E--------------4---4-5---5-|

bridge overdrive guitar  x4
e--------------------------|
B--------------------------|
G-----6-----6-----6-----44-|
D-2-2-6-2-2-6-2-2-6-2-2-44-|
A-2-2-4-2-2-4-2-2-4-2-2-22-|
E-0-0---0-0---0-0---0-0----|

chorus
e--------------------------|
B--------------------------|
G--------2-------------2---|
D-4------2------4------2---|
A-4------0------4------0---|
E-2-------------2----------|

post-chorus              x2
e--------------------------|
B--------------------------|
G-9-999999-6-666666--------|
D-9-999999-6-666666--------|
A-7-777777-4-444444--------|
E--------------------------|


verse                    x4
e--------------------------|
B--------------------------|
G-4-4-44-44444-------------|
D-4-4-44-44444-------------|
A-2-2-22-22222---6-----7---|
E--------------4---4-5---5-|

bridge                   x4
e--------------------------|
B--------------------------|
G-----6-----6-----6-----44-|
D-2-2-6-2-2-6-2-2-6-2-2-44-|
A-2-2-4-2-2-4-2-2-4-2-2-22-|
E-0-0---0-0---0-0---0-0----|

chorus
e--------------------------|
B--------------------------|
G--------2-------------2---|
D-4------2------4------2---|
A-4------0------4------0---|
E-2-------------2----------|

post-chorus              x2
e--------------------------|
B--------------------------|
G-9-999999-6-666666--------|
D-9-999999-6-666666--------|
A-7-777777-4-444444--------|
E--------------------------|

outro                    x3
e--------------------------|
B--------------------------|
G-4-4-44-44444-------------|
D-4-4-44-44444-------------|
A-2-2-22-22222---6-----7---|
E--------------4---4-5---5-|


e--------------------------|
B--------------------------|
G-4-4-44-44444-------------|
D-4-4-44-44444-------7-----|
A-2-2-22-22222---6---7-----|
E--------------4---4-5-----|
Related for Off My Mind tab