Smoking Popes - Adena tab

			  Adena - Smoking Popes (Intro)
----------------------------------------------------------------------------
Tabbed by: Jeff Berry
Tuning: Standard

The previous tab was missing the intro (which I think is the best part of this 
song)... so here it is.

h = hammer on
p = pull off
s = slide

e|-------------------------------------------------------------------------|
B|-------------------------------------------------------------------------|
G|----------------------------2-----2-------2------------------------------|
D|------------------------2s4---4-2---2---0---0----------------------------|
A|------------------0h2s4-----------------------4-4-----5-4h5p4-s-2p0------|
E|--2---2---0h2s5-----------------------------------------------------2----|


e|-------------------------|
B|-------------------------|
G|----------2-1h2p1--------|
D|------2h4--------4-2-3s4-|
A|--2h4--------------------|
E|-------------------------|
Tap to rate this tab
 
# A B C D E F G H I J K L M N O P Q R S T U V W X Y Z