Song name
# A B C D E F G H I J K L M N O P Q R S T U V W X Y Z

Smoking Popes - Megan tab

----------------------------------------------------------------------------
                           MEGAN -- Smoking Popes
----------------------------------------------------------------------------

Very good tab for a very good song... well, the solo at least:

Tabbed by: GreekMonster
Email: greekmonster717@yahoo.com

Tuning: E A D G B e

e|---11-----11--------------------------14-13-11----------------------------|
B|---14b16-----14-11-----------------------------14-12-11-12-11-------------|
G|-------------------13b15r13p11--------------------------------13-11-------|
D|-------------------------------13-13--------------------------------------|
A|--------------------------------------------------------------------------|
E|--------------------------------------------------------------------------|

e|----------------------16b18--16-14-16--19-18-16----16-15--11-9------------|
B|------------------------------------------------19-------------12-11-12---|
G|---13b15r13p11------------------------------------------------------------|
D|---------------13-11------------------------------------------------------|
A|--------------------------------------------------------------------------|
E|--------------------------------------------------------------------------|

e|---9-11-9--------------------------------------9b11--9b11r9p7-------------|
B|----------12-11-9------7---------------7-9---7----------------9b11r9p7----|
G|-------------------6/8---8\6-4-6-4-6/8-----8------------------------------|
D|--------------------------------------------------------------------------|
A|--------------------------------------------------------------------------|
E|--------------------------------------------------------------------------|

e|--------------------------------------------------------------------------|
B|---------------9----------------------------------------------------------|
G|---11b13r11p10---11-------------------------------------------------------|
D|--------------------------------------------------------------------------|
A|--------------------------------------------------------------------------|
E|--------------------------------------------------------------------------|


 b  bend
 r  release bend
 /  slide up
 \  slide down
 h  hammer-on
 p  pull-off
 ~  vibrato
 +  harmonic
 x  Mute note
Tap to rate this tab
# A B C D E F G H I J K L M N O P Q R S T U V W X Y Z